PrimaNota.ru - самый крупный в мире бесплатный архив песенных текстов, аккордов, табулатур и нот


Gorerotted - Gagged Shagged Bodybagged - текст песни, таба, видео

Регистрация Запомнить меня
Войти через:  Facebook Google Twitter Vk Yandex Mail.ru

Gorerotted - Gagged Shagged Bodybagged - текст песни, таба, видео

Печатать
Просмотров: 154
 Song: Gagged, Shagged, Bodybagged
 Band: Gorerotted
Album: Mutilated In Minutes

Transcribed By: Scott Carlin, corrected by Matt from Gorerotted
Email:          the_super_adventures@yahoo.ie

.  - palm mute           /  - slide up to 
\  - slide down to       ~  - vibrato 
h  - hammer on           b  - Bend 
p  - pull off            Suffixes for bend 
t  - tap                 f  - full bend    h - half bend 
^ - pinched harmonic    q  - quarter bend t - tap bend 
*  - see comment         H  - Hold bend    r release bend 
x  - Stuccatto           ~  - vibrato bend 
,  - slight palm mute    () - ghost note, sustained note 
"  - tremolo note        tr - Trill 

Tuning: Down 1 Step ( D G C F A D )
---------------------------------------------
THIS IS THE OFFICIAL TAB, THANKS TO MATT FROM
GOREROTTED, THANKS MATT!!!!!!!!!!!!!!!!!!!!!!
------------------------------------------------------------------------------
Riff A x 2 (+ 2 X For Verse) for intro, then pretty much the same but slightly
more relaxed on the verse, listen to it and work it out
------------------------------------------------------------------------------

Both Guitars
D------------------------------------------||
A------------------------------------------||
F------------------------------------------||
C------------------------------------------||
G----3/6----3/6----3/6---0h3p0h3p0h3p0h3p0-||
D--0-3/6--0-3/6--0-3/6---------------------||

D------------------------------------------||
A------------------------------------------||
F------------------------------------------||
C------------------------------------------||
G----3/6----3/6----3/6---0h6p0h6p0h6p0h6p0-||
D--0-3/6--0-3/6--0-3/6---------------------||

Riff B (Pre-Chorus)
gtr1 
D||---------------------------------------------------------------------||
A||---------------------------------------------------------------------||
F||---------------------------------------------------------------------||
C||---------------------------------------------------------------------||
G||-0h3p0h3p0h3p0h3p0h3p0h3p0h3p0h3p00h6p0h6p0h6p0h6p 0h6p0h6p0h6p0h6p0-||
D||---------------------------------------------------------------------||

gtr2 Let chord ring under above riff then after 4 bars double gtr1
D||-------------------------------------------------------------------------||
A||-------------------------------------------------------------------------||
F||--2----------------------------------------------------------------------||
C||--2----------------------------------------------------------------------||
G||--0----------------------------------------------------------------------||
D||-------------------------------------------------------------------------||

Riff C (Break)
Gtr1
D||---------------------------------||
A||---------------------------------||
F||---------------------------------||
C||-------------------------------7-||
G||---------------------------656-5-||
D||---------------------------434---||
                              ...
Gtr2
D||---------------------------------||
A||---------------------------------||
F||---------------------------------||
C||------------------------------7--||
G||--------------------------656-5--||
D||--6-5-6-5-4-3-4-3-6-5-6-5-434----||
     " " " " " " " " " " " " ...

Both Guitars x2
D||-----------------------------------||
A||-----------------------------------||
F||-----------------------------------||
C||-----------------------------------||
G||---------------------------------5-||
D||--6-5-6-5-4-3-4-3-6-5-6-5-4-3-4----||
     " " " " " " " " " " " " " " "  "

D||----------------------------------||
A||----------------------------------||
F||----------------------------------||
C||-------------------------------7--||
G||---------------------------656-5--||
D||--6-5-6-5-4-3-4-3-6-5-6-5--434----||
     " " " " " " " " " " " "  ...

Riff D (Chorus) X 4
D||--------------------------------||
A||--------------------------------||
F||--------------------------------||
C||-----4--------------4-----------||
G||--22-2-2-4-4-5\4-22-2-2-4-4-5\4-||
D||--00---0-2---3\2-00---0-2---3\2-||
              ^              ^

Riff E (Both Guitars) X 4
D||--------------------------------------------||
A||--------------------------------------------||
F||--------------------------------------------||
C||--------------------------------------------||
G||--3030303030303030-630630630630630630630630-||
D||--------------------------------------------||

END
Добавлено: 08.04.2012
Другие материалы по этой песне:
  • Аккорды и текст

Страница создана 08.04.2012
http://primanota.ru/gorerotted/gagged-shagged-bodybagged-chords.htm
Привет, Гость.
Предлагаем пройти революционный курс по гитаре.
Подарок от PrimaNota.Ru, забирай!