PrimaNota.ru - самый крупный в мире бесплатный архив песенных текстов, аккордов, табулатур и нот


Gorerotted - Dead Drunk - таба, видео

Регистрация Запомнить меня
Войти через:  Facebook Google Twitter Vk Yandex Mail.ru

Gorerotted - Dead Drunk - таба, видео

Печатать
Просмотров: 148
 Song: Dead Drunk
 Band: Gorerotted
Album: A New Dawn For The Dead

Transcribed By: Scott Carlin and Vincent "Djeez" Boivin

Email:          the_super_adventures@yahoo.ie
                hated_gg_allin@hotmail.com

.  - palm mute           /  - slide up to
\  - slide down to       ~  - vibrato
h  - hammer on           b  - Bend
p  - pull off            Suffixes for bend
t  - tap                 f  - full bend    h - half bend
^ - pinched harmonic    q  - quarter bend t - tap bend
*  - see comment         H  - Hold bend    r release bend
x  - Stuccatto           ~  - vibrato bend
,  - slight palm mute    () - ghost note, sustained note
"  - tremolo note        tr - Trill

Tuning: Down 1 Step ( D G C F A D )

Intro x1
||-------------------||
||-------------------||
||-------------------||
||----7-8-7---7------||
||--5-------8---2-5--||
||--------------0-3--||
    " " " " " " . .

Riff 1 x2              Riff 2 x2
||-------------------||--------------------||
||-------------------||--------------------||
||-------------------||--------------------||
||----7-8-7---7---5--||--------------------||
||--5-------8---7----||----7-8-7---7---5---||
||-------------------||--5-------8---7-----||
    " " " " " " " "      " " " " " " " "

Riff 1 x2
Riff 1 x1

Riff 2a x1
||-----------------------||
||-----------------------||
||-----------------------||
||--------------9-----7--||
||----7-8-7-10--7--9--5--||
||--5--------8-----7-----||
    " " " "  .  .  .  .

Interlude x1
||--------------------||
||--------------------||
||--4~----------------||
||------5~---4~-------||
||----------------5~--||
||--------------------||

Riff 3 x4
||-----------------------------------|
||-----------------------------------|
||-----------------------------------|
||-----------------------------------|
||----------3/6\3---3/6\3---3-6-3----|
||-0-1tr4-0-1/4\1-0-1/4\1-0-1-4-1----|
   .      .       .       . . . .

 -------------------------------------||
 -------------------------------------||
 -------------------------------------||
 -------------------------------------||
 ----------3/6\3-2tr5-3tr6-4tr7-5tr8--||
 -0-1tr4-0-1/4\1----------------------||
  .      .

Intro x1
Riff 1 x2
Riff 2 x2
Riff 1 x2
Riff 2 x1

Riff 2b
||--------------------------||
||--------------------------||
||--------------------------||
||--------------------------||
||----7-8-7-4-3-4-7-4-3-4-7-||
||--5-------2-1-2-5-2-1-2-5-||
    " " " " . . .   . . .

Riff 4 x8
||-------------------------------------||
||-------------------------------------||
||-------------------------------------||
||-------------------------------------||
||--4-3-4-7--4-3-4-7--4-3-4-7/8\7-4-3--||
||--2-1-2-5--2-1-2-5--2-1-2-5/6\5-2-1--||
    . . .    . . .    . . .       . .

Riff 5a x2
||-------------------------||
||-------------------------||
||-------------------------||
||-------------------------||
||-1-----2-----3-----4-----||
||---2-2---3-3---4-4---5-4-||
     . .   . .   . .   . .

Riff 5b x2
||-------------------------||
||-------------------------||
||-------------------------||
||-1-----2-----3-----4-----||
||---2-2---3-3---4-4---5-4-||
||-------------------------||
     . .   . .   . .   . .

Riff 5a x2
Riff 5b x2

Riff 6a x2 and a half
||---------------------------------|--------------------------------||
||---------------------------------|----------------------------4~~-||
||-----------------------------4~~-|--------------------------------||
||-5-----5-6----5/6\5----5--6------|-2-----5-6---5/6\5----5--6------||
||-3--3--3-4-4--3/4\3-3--3--4------|-0--3--3-4-4-3/4\3-3--3--4------||
||----1------2--------1------------|----1------2-------1------------||
                               ^                                ^

Riff 6b x1
||-----------------------------------------------------------------|
||-----------------------------------------------------------------|
||-----------------------------------------------------------------|
||-5-5-5-------5-5-6-6-6-------5-6-5-5-5-------5-5-6-6-6-----------|
||-3-3-3-3-3-3-3-3-4-4-4-4-4-4-3-4-3-3-3-3-3-3-3-3-4-4-4-4-4-4-4-4-|
||-------1-1-1-----------2-2-2-----------1-1-1-----------2-2-2-2-2-|
   . . . . . . . . . . . . . . . . . . . . . . . . . . . . . . . .

 -----------------------------------------------------------------||
 -----------------------------------------------------------------||
 -----------------------------------------------------------------||
 -2-2-2-------5-5-6-6-6-------5-6-5-5-5-------5-5-6-6-6-----------||
 -0-0-0-3-3-3-3-3-4-4-4-4-4-4-3-4-3-3-3-3-3-3-3-3-4-4-4-4-4-4-4-4-||
 -------1-1-1-----------2-2-2-----------1-1-1-----------2-2-2-2-2-||
  . . . . . . . . . . . . . . . . . . . . . . . . . . . . . . . .

Riff 6a x1
Riff 6b x half

Ending x1
||-----------------------------------||
||-----------------------------------||
||-----------------------------------||
||-2-2-----5-5-6-6-----5/6\5---5-6~~-||
||-0-0-3-3-3-3-4-4-4-4-3/4\3-3-3-4~~-||
||-----1-1---------2-2-------1-------||
   . . . . . . . . . .

END
Добавлено: 18.05.2012
Другие материалы по этой песне:
  • Аккорды и текст

Страница создана 18.05.2012
http://primanota.ru/gorerotted/dead-drunk-chords.htm
Привет, Гость.
Предлагаем пройти революционный курс по гитаре.
Подарок от PrimaNota.Ru, забирай!