PrimaNota.ru - самый крупный в мире бесплатный архив песенных текстов, аккордов, табулатур и нот


Gorerotted - Cant Fit Her Limbs In The Fridge - текст песни, таба, видео

Регистрация Запомнить меня
Войти через:  Facebook Google Twitter Vk Yandex Mail.ru

Gorerotted - Cant Fit Her Limbs In The Fridge - текст песни, таба, видео

Печатать
Просмотров: 170
Уроки эстрадного вокала в Санкт-Петербурге
   ---CAN'T FIT HER LIMBS IN THE FRIDGE---
             --By GOREROTTED--
 -From The 2003 Album ONLY TOOLS AND CORPSES-

Tabbed By Scott Carlin
E-Mail: the_super_adventures@yahoo.ie

Tuning: Down 1 Step ( D G C F A D )

Riff 1 x4
||------||
||------||
||------||
||-3----||
||-1----||
||------||
   .

Riff 2a x7
||---------||
||---------||
||---------||
||---------||
||-1---1-4-||
||---3-----||
   " " " "

Riff 2b x1
||---------||
||---------||
||-------3-||
||-2-1-2---||
||---------||
||---------||
   " " " "

Riff 2a x7
Riff 2b x1
Riff 2a x7
Riff 2b x1
                _____________________________
Riff 3a x8     | 1,3,5,7     || 2,4,6,8      |
||-------------|-------------||-------------||
||-------------|-------------||-------------||
||-------------|-------------||-------------||
||-------------|-------------||-------------||
||-5-6-5-4-5-6-|-6-7-6-5-6-7-||-6-7-6-5-6-7-||
||-------------|-4-5-4-3-4-5-||-4-5-4-3-4-5-||
   " " " " " "                  . . . . . .

Riff 4 x8
||---------------------------------||
||---------------------------------||
||---------------------------------||
||---------------------------------||
||-----2h5-3h6---------2h5-----3h6-||
||-1h4---------2h5-1h4-----2h5-----||


Riff 1 x4
Riff 2a x3

Interlude x1
||-----||
||-----||
||-----||
||-5br-||
||-----||
||-----||
   ^

Riff 5a x4
||-------------------------||
||-------------------------||
||-------------------------||
||-------------------------||
||------------------1tr4---||
||-1tr4------3tr6----------||


Riff 5b x2
||-----------------------------------------------------------------||
||-----------------------------------------------------------------||
||-----------------------------------------------------------------||
||-----------------------------------------------------------------||
||---------------------------------------------------1h4---1h4---4-||
||-0h1h4-0h1h4-0h4-0h1h4-0h1h4-0h4-0h3h6-0h3h6-0h6-0-----0-----0---||


Riff 5c x2
||-----------------------------------------------------------------||
||-----------------------------------------------------------------||
||-----------------------------------------------------------------||
||-----------------------------------------------------------------||
||---------------------------------------------------1-4---1-4---4-||
||-0-1-4-0-1-4-0-4-0-1-4-0-1-4-0-4-0-3-6-0-3-6-0-6-0-----0-----0---||
   . . . . . . . . . . . . . . . . . . . . . . . . . . . . . . . .

Riff 2b x1
Riff 4 x8
                ____________________________
Riff 3b x8     | 1,3,5,7     | 2,4,6,8      |
||-------------|-------------|-------------||
||-------------|-------------|-------------||
||-------------|-------------|-------------||
||-4-5-4-3-4-5-|-------------|-------------||
||-------------|-6-7-6-5-6-7-|-6-7-6-5-6-7-||
||-------------|-4-5-4-3-4-5-|-4-5-4-3-4-5-||
|  " " " " " " |             | . . . . . .  |
|              |             |              |
||-------------|-------------|-------------||
||-------------|-------------|-------------||
||-------------|-------------|-------------||
||-------------|-------------|-------------||
||-5-6-5-4-5-6-|-6-7-6-5-6-7-|-6-7-6-5-6-7-||
||-------------|-4-5-4-3-4-5-|-4-5-4-3-4-5-||
   " " " " " "                 . . . . . .

END
Добавлено: 26.02.2012
Другие материалы по этой песне:

Страница создана 26.02.2012
http://primanota.ru/gorerotted/cant-fit-her-limbs-in-the-fridge-chords.htm
Привет, Гость.
Предлагаем пройти революционный курс по гитаре.
Подарок от PrimaNota.Ru, забирай!