PrimaNota.ru - самый крупный в мире бесплатный архив песенных текстов, аккордов, табулатур и нот


Gorefest - For The Masses - таба, видео

Регистрация Запомнить меня
Войти через:  Facebook Google Twitter Vk Yandex Mail.ru

Gorefest - For The Masses - таба, видео

Печатать
Просмотров: 103
-------------------------------------------------------------------------------
                           For The Masses - Gorefest
-------------------------------------------------------------------------------

Tuning: C F A# D# G C

Intro (1x)
Guitar I
C||---------------|---------------|---------------|---------------|
G||---------------|---------------|---------------|---------------|
D#|---------------|---------------|---------------|---------------|
A#|-2-------------|-5-------------|-2-------------|-5-------------|
F||-2-------------|-5-------------|-2-------------|-5-------------|
C||-0-------------|-3-------------|-0-------------|-3-------------|
Guitar II
C||---------------|---------------|---------------|---------------|
G||---------------|---------------|---------------|---------------|
D#|-------9-------|------/12------|-------9-------|------/12------|
A#|---------------|---------------|---------------|---------------|
F||---------------|---------------|---------------|---------------|
C||---------------|---------------|---------------|---------------|

Riff 1 (2x)
C||---------------|---------------|---------------|---------------|
G||---------------|---------------|---------------|---------------|
D#|---------------|---------------|---------------|---------------|
A#|--------4------|--------7------|--------4------|--------7------|
F||-2------2------|-5------5------|-2------2------|-5------5------|
C||-0-------------|-3-------------|-0-------------|-3-------------|

Riff 2 (4x)
C||---------------|---------------|---------------|---------------|
G||---------------|---------------|---------------|---------------|
D#|---------------|---------------|---------------|---------------|
A#|-4-4---------5-|-4-4---------5-|-4-4---------5-|-4-4--7-6-6--5-|
F||-4-4---------5-|-4-4---------5-|-4-4---------5-|-4-4--7-6-6--5-|
C||-2-2---------3-|-2-2---------3-|-2-2---------3-|-2-2--5-4-4--3-|

Riff 3 (1x)
C||-------------------------------|-------------------------------|
G||-------------------------------|-------------------------------|
D#|-------------------------------|-------------------------------|
A#|-----------------2---------2-2-|-------------------------3-3-3-| (3x)
F||-----------------2---------2-2-|-------------------------3-3-3-|
C||-0-0-0-0-0-0-0-0-0-0-0-0-0-0-0-|-0-0-0-0-0-0-0-0-0-0-0-0-1-1-1-|
    . . . . . . . .   . . . .       . . . . . . . . . . . .

C||-------------------------------|-------------------------------|
G||-------------------------------|-------------------------------|
D#|-------------------------------|-------------------------------|
A#|-----------------2---------2-2-|-------------------------5-4-3-| (1x)
F||-----------------2---------2-2-|-------------------------5-4-3-|
C||-0-0-0-0-0-0-0-0-0-0-0-0-0-0-0-|-0-0-0-0-0-0-0-0-0-0-0-0-3-2-1-|
    . . . . . . . .   . . . .       . . . . . . . . . . . .

Riff 2 (2x)

Riff 4 (1x)
C||----------------|     |-------------------|
G||----------------|     |-------------------|
D#|----------------|     |-------------------|
A#|----------------|(3x) |-------------------|
F||-5'-5'-5'----7'-|     |-5'-5'-9'-7'-7'-7'-|
C||----------------|     |-------------------|

C||----------------|     |----------------|     |-------------------|
G||----------------|     |----------------|     |-------------------|
D#|----------------|     |----------------|     |-------------------|
A#|----------------|(2x) |----------------|(1x) |-------------------|
F||-5'-5'-5'----7'-|     |-5'-5'-5'----9'-|     |-7'-7'-5'-7'-7'-9'-|
C||----------------|     |----------------|     |-------------------|

Riff 3 (1x)

Intro (1x)

Riff 1 (3x)

Riff 5 (1x)
C||---------------|
G||---------------|
D#|---------------|
A#|-9-------------|
F||-7-------------|
C||---------------|

Riff 6 (2x)
C||-------------------------------|-------------------------------|
G||-------------------------------|-------------------------------|
D#|-------------------------------|-------------------------------|
A#|-----------------2---------2-2-|-------------------------2-2-2-|
F||-----------------2---------2-2-|-------------------------2-2-2-|
C||-1-1-1-1-1-1-1-1-0-1-1-1-1-0-0-|-1-1-1-1-1-1-1-1-1-1-1-1-0-0-0-|
    . . . . . . . .   . . . .       . . . . . . . . . . . .

C||-------------------------------|-------------------------------|
G||-------------------------------|-------------------------------|
D#|-------------------------------|-------------------------------|
A#|-----------------2---------2-2-|-------------------------2-3-3-|
F||-----------------2---------2-2-|-------------------------2-3-3-|
C||-1-1-1-1-1-1-1-1-0-1-1-1-1-0-0-|-1-1-1-1-1-1-1-1-1-1-1-1-0-1-1-|
    . . . . . . . .   . . . .       . . . . . . . . . . . .

Riff 7 (1x)
C||------------------------|     |-------------------------------|
G||------------------------|     |-------------------------------|
D#|------------------------|     |-------------------------------|
A#|------------------------|(3x) |-------------------------------|
F||------------------------|     |-------------------------------|
C||-5'----8'--------7'--6'-|     |-5'----8'--------8'---6'---6\--|

Riff 6 (2x)
Добавлено: 28.08.2015
Другие материалы по этой песне:

Страница создана 12.04.2012
http://primanota.ru/gorefest/for-the-masses-chords.htm
Привет, Гость.
Предлагаем пройти революционный курс по гитаре.
Подарок от PrimaNota.Ru, забирай!