PrimaNota.ru - самый крупный в мире бесплатный архив песенных текстов, аккордов, табулатур и нот


Gore Slut - A Little Is Enough - таба, видео

Регистрация Запомнить меня
Войти через:  Facebook Google Twitter Vk Yandex Mail.ru

Gore Slut - A Little Is Enough - таба, видео

Печатать
Просмотров: 49
A Little Is Enough

tab by Avi 

*maybe this song is half a tone up or not, anyway'Z the solo is TRUE, 
and for that I am Proud ! :-)

the whole song is - 
Am  C  G  D/F# 

   D/F#
e|--2--|
B|--3--|
G|--2--|
D|--4--|
A|--5--|
E|--2--|


first solo (1:11 - 1:52) - 
e|-------------|---------|-------------|--------------------|
B|-------------|---------|-------------|--------------------|
G|-----6-8br-6-|-8br-8br-|-----6-8br-6-|-6/10-11-11-11-10-8-|
D|-6h8---------|---------|-6h8---------|--------------------|
A|-------------|---------|-------------|--------------------|
E|-------------|---------|-------------|--------------------|

e|------------------|-----------------|--------------------|
B|------------------|-----------------|--------------------|
G|-10-11-13-11-10-8-|-----6-8-6-8br-6-|-6h8-10-11-11-11-10-|
D|------------------|-6-8-------------|--------------------|
A|------------------|-----------------|--------------------|
E|------------------|-----------------|--------------------|

e|---------------------|-8-----------------------------|
B|---------------------|---8b-8b-8v-8v-8vvvvv...-------|
G|-8-10-11-13-13-11-10-|--(just mess around with this,-|
D|---------------------|--------I think he does)-------|
A|---------------------|-------------------------------|
E|---------------------|-------------------------------|

e|-------------|------------|-------------|----------------|
B|-------------|------------|-------------|----------------|
G|-----6-8br-6-|-8-6---6/10-|-6h8-10-10-8-|-11-8-6h8-8-6---|
D|-6h8---------|-----8------|-------------|--------------8-|
A|-------------|------------|-------------|----------------|
E|-------------|------------|-------------|----------------|

e|-----------------------|---------------------|
B|-----------------------|---------------------|
G|-----6-8br-6-8br-6---6-|-6-6/10b-(hold bend)-|
D|-6h8---------------8---|---------------------|
A|-----------------------|---------------------|
E|-----------------------|---------------------|

second solo (2:18 - 2:59) - 
e|------------|------------------|---|
B|------------|------------------|---|
G|-10-6-8-6---|-6h8-10-11-10-8-8-|-8-|
D|----------8-|------------------|---|
A|------------|------------------|---|
E|------------|------------------|---|

e|---------------------------------|------------------------|
B|---------------------------------|------------------------|
G|-8h10-11-11-11-10-10-11-13-13-11-|-11/10-10-10-10/8-8-6-8-|
D|---------------------------------|------------------------|
A|---------------------------------|------------------------|
E|---------------------------------|------------------------|
                                          
e|-------|---------|--------|------------|--------------|
B|-------|---------|--------|------------|--------------|
G|-----6-|-----6---|-6h8-10-|-6h8-10-10b-|-10-8-10-8-10-|
D|-6h8---|-6h8---8-|--------|------------|--------------|
A|-------|---------|--------|------------|--------------|
E|-------|---------|--------|------------|--------------|

e|------------|-------------------------|
B|------------|-------------------------|
G|-8-10/13-11-|-10h11-13-11-10-11-10-11-|
D|------------|-------------------------|
A|------------|-------------------------|
E|------------|-------------------------|

e|---------------|------|-----------|---------------------|
B|---------------|------|-----------|---------------------|
G|-13-11-10-8-10-|-8-10-|-8-10-8-10-|-13-11-10-8-10-8-5-8-|
D|---------------|------|-----------|---------------------|
A|---------------|------|-----------|---------------------|
E|---------------|------|-----------|---------------------|

e|----------------|--------------------------|-13b-(hold----|
B|----------------|--------------------------|--------bend)-|
G|-6/8-8/10-10/11-|-10/11-11-11-11/13-13-13b-|--------------|
D|----------------|--------------------------|--------------|
A|----------------|--------------------------|--------------|
E|----------------|--------------------------|--------------|
     
Добавлено: 06.11.2013
Другие материалы по этой песне:
  • Аккорды и текст

Страница создана 07.09.2013
http://primanota.ru/gore-slut/a-little-is-enough-chords.htm
Привет, Гость.
Предлагаем пройти революционный курс по гитаре.
Подарок от PrimaNota.Ru, забирай!