PrimaNota.ru - самый крупный в мире бесплатный архив песенных текстов, аккордов, табулатур и нот


Gordon Giltrap - Drifter - таба, видео

Регистрация Запомнить меня
Войти через:  Facebook Google Twitter Vk Yandex Mail.ru

Gordon Giltrap - Drifter - таба, видео

Печатать
Просмотров: 156
Уроки эстрадного вокала в Санкт-Петербурге
#This file is the author's own work and represents their interpretation of the #
#song. You may only use this file for private study, scholarship, or research. #
#------------------------------------------------------------------------------##

                                     DRIFTER
                          As recorded by Gordon Giltrap
                          (From the 2005 Album DRIFTER)

Music by Gordon Giltrap
Transcribed by Corey Hunter @ www.coreyhunter.com

Gtr I (C C D G C D) - 'Giltrap Acoustic Steel'

 Intro
  Q=75
 4/4
  Gtr I
  S S S S E E E E E E   S S S S E E E E E E
|-------5---2---2-----|-------5---0---0-----|
|-----0---2---2---2-0-|-----0---0---0---0---|
|---0-------------0---|---4---------2---0-4-|
|-------------3-------|-3-----------------0-|
|-0-------------------|---------------------|
|---------------------|---------------------|


  S S S S E E E E E E   S S S S E E E E E E
|-------5---2---2-----|-------5---0---0-----|
|-----0---2---2---2-0-|-----0---0---0---0---|
|---0-------------0---|---4---------2---0-4-|
|-------------3-------|-3-----------------0-|
|-0-------------------|---------------------|
|---------------------|---------------------|


   Verse
    S S S S E E E E E E   S S S S E E E E E E
||--------5---2---2-----|-------5---0---0-----|
||o-----0---2---2---2-0-|-----0---0---0---0---|
||----0-------------0---|---4---------2---0-4-|
||--------------3-------|-3-----------------0-|
||o-0-------------------|---------------------|
||----------------------|---------------------|


  S S S S E E E E E E   S S S S E E E E E E
|-------5---2---2-----|-------5---0---0-----|
|-----0---2---2---2-0-|-----0---0---0---0---|
|---0-------------0---|---4---------2---0-4-|
|-------------3-------|-3-----------------0-|
|-0-------------------|---------------------|
|---------------------|---------------------|


  S S S S E E E E E E   S S S S S S S S S S S S E E
|-------5-3-2-----0---|-----------------------5---0-|
|-----0-------2-0---4-|-----0-------0-------0---0---|
|---0---------4---2---|-------5-------5---4---------|
|---------------------|---3-------2-----0-----------|
|-0-------------------|-0-------0-------------------|
|---------------------|-----------------------------|


  S S S S E E E E E E   S S S S S S S S S S S S S S S S
|-------5-3-2-----0---|---5---0---5---0-----5-0-----5-0---||
|-----0-------2-0---4S|=7-------5---0-----5-------5------o||
|---0---------4---2---|-----5-----------7-------0---------||
|---------------------|-----------------------------------||
|-0-------------------|----------------------------------o||
|---------------------|-----------------------------------||


   Interlude
    $
    S S S S E E S S S S S S S S   S S S S S S  S  S S S S S Q
||----3h5---0-5---0-7---0---5p3-|-----0-------------------0-0--|
||o-4-----0-----4-----0---0-----|-5S4---0---------0---0-0---2--|
||----------4-----------4-------|---------2-0--0----0---2---0--|
||------------------------------|------------------------------|
||o-0-----------5---------------|-0-----------------0----------|
||------------------------------|---------5---(4)--------------|


  S S S S S S E S S S S S S S S   S S S S S S  S  S S S S S Q
|-----5---0---5-3---5h7-0---5---|-----0-------------------0----|
|-4h5---0---0-----0-------0---5-|-5S4---0---------0---0-0---2--|
|---------4-----5-------4-------|---------2-0--0----0---2---0--|
|-------------------------------|------------------------------|
|-0-----------------------------|-0-----------------0----------|
|-------------------------------|---------5---(4)--------------|


   Verse
    S S S S E E E E E E   S S S S E E E E E E
||--------5---2---2-----|-------5---0---0-----|
||o-----0---2---2---2-0-|-----0---0---0---0---|
||----0-------------0---|---4---------2---0-4-|
||--------------3-------|-3-----------------0-|
||o-0-------------------|---------------------|
||----------------------|---------------------|


  S S S S E E E E E E   S S S S E E E E E E
|-------5---2---2-----|-------5---0---0------||
|-----0---2---2---2-0-|-----0---0---0---0---o||
|---0-------------0---|---4---------2---0-4--||
|-------------3-------|-3-----------------0--||
|-0-------------------|---------------------o||
|---------------------|----------------------||


  S S S S E E E E E E   S S S S S S S S S S S S E E   S S S S E E E E E E
|-------5-3-2-----0---|-----------------------5---0-|-------5-3-2-----0---|
|-----0-------2-0---4-|-----0-------0-------0---0---|-----0-------2-0---4S|
|---0---------4---2---|-------5-------5---4---------|---0---------4---2---|
|---------------------|---3-------2-----0-----------|---------------------|
|-0-------------------|-0-------0-------------------|-0-------------------|
|---------------------|-----------------------------|---------------------|


                            D.S.
  S S S S S S S S S S S S S S S S     T T T T E +H.
|---5---0---5---0-----5-0-----5-0--||---------0-(0)----*|
|-7-------5---0-----5-------5-----o||-------7----------*|
|-----5-----------7-------0--------||-----5------------*|
|----------------------------------||---5--------------*|
|---------------------------------o||-0----------------*|
|----------------------------------||------------------*|


Duration Legend
---------------
W - whole; H - half; Q - quarter; E - 8th; S - 16th; T - 32nd; X - 64th; a - acciaccatura
+ - note tied to previous; . - note dotted; .. - note double dotted
Uncapitalized letters represent notes that are staccato (1/2 duration)
Irregular groupings are notated above the duration line
Duration letters will always appear directly above the note/fret number it represents the
duration for.  Duration letters with no fret number below them represent rests.  Multi-
bar rests are notated in the form Wxn, where n is the number of bars to rest for.  Low
melody durations appear below the staff

Tablature Legend
----------------
 h   - hammer-on
 p   - pull-off
 b   - bend
 pb  - pre-bend
 r   - bend release (if no number after the r, then release immediately)
 /\  - slide into or out of (from/to "nowhere")
 s   - legato slide
 S   - shift slide
  - natural harmonic
[n]  - artificial harmonic
n(n) - tapped harmonic
 ~   - vibrato
 tr  - trill
 T   - tap
 TP  - trem. picking
 PM  - palm muting
\n/  - tremolo bar dip; n = amount to dip
 \n  - tremolo bar down
 n/  - tremolo bar up
/n\  - tremolo bar inverted dip
 =   - hold bend; also acts as connecting device for hammers/pulls
 <>  - volume swell (louder/softer)
 x   - on rhythm slash represents muted slash
 o   - on rhythm slash represents single note slash

Misc Legend
-----------
 |  - bar
||  - double bar
||o - repeat start
o|| - repeat end
*|  - double bar (ending)
 :  - bar (freetime)
 $  - Segno
 &  - Coda
Tempo markers -  = BPM(8/16=s8/s16), where s8 = swing 8ths, s16 = swing 16ths


Добавлено: 19.04.2012
Другие материалы по этой песне:

Страница создана 16.03.2012
http://primanota.ru/gordon-giltrap/drifter-chords.htm
Привет, Гость.
Предлагаем пройти революционный курс по гитаре.
Подарок от PrimaNota.Ru, забирай!