PrimaNota.ru - самый крупный в мире бесплатный архив песенных текстов, аккордов, табулатур и нот


Gordian Knot - Year Of The Sun - бас-таба, видео

Регистрация Запомнить меня
Войти через:  Facebook Google Twitter Vk Yandex Mail.ru

Gordian Knot - Year Of The Sun - бас-таба, видео

Печатать
Просмотров: 71
Tabbed by: 6METAL6BASSIST6
E-mail: petergriffinav@gmail.com

Tuning: EADG

G|----|
D|2---|
A|----|
E|----|

0:04

G|2-------------------------------2-------------------------------|
D|----------------------------2-------------------------------2---|
A|----------------------------------------------------------------|
E|----------------------------------------------------------------|

0:09

G|2-------------------------------2-------------------------------|
D|----------------------------2-------------------------------2---|
A|----------------------------------------------------------------|
E|----------------------------------------------------------------|

G|2-------------------------------0---7-------7-------7-----------|
D|----------------------------2-------------------------------2---|
A|----------------------------------------------------------------|
E|----------------------------------------------------------------|

G|0---7-------7-------7-----------2-------------------------------|
D|----------------------------2-------------------------------2---|
A|----------------------------------------------------------------|
E|----------------------------------------------------------------|

G|2-------------------------------2-------------------------------|
D|----------------------------2-------------------------------2---|
A|----------------------------------------------------------------|
E|----------------------------------------------------------------|

G|0---7-------7-------7-----------0---7-------7-------7-----------|
D|----------------------------2-------------------------------2---|
A|----------------------------------------------------------------|
E|----------------------------------------------------------------|

0:30

G|2---------------2-----------------------------------------------|
D|----------------------------4---2---------------2---2-------4---| x2
A|----------------------------------------------------------------|
E|----------------------------------------------------------------|

G|2---------------2-----------------------------------------------|
D|----------------------------4---2---------------2-----------0---|
A|----------------------------------------------------------------|
E|----------------------------------------------------------------|

G|----------------------------------------------------------------|
D|----------------------------0---2---------------2---------2/4---|
A|3---------------3-----------------------------------------------|
E|----------------------------------------------------------------|

0:48

G|2---------------2-----------------------------------------------|
D|----------------------------4---2---------------2---2-------4---|
A|----------------------------------------------------------------|
E|----------------------------------------------------------------|

G|2---------------2-----------------------------------------------|
D|----------------------------4---2---------------2-----------0---|
A|----------------------------------------------------------------|
E|----------------------------------------------------------------|

G|----------------------------------------------------------------|
D|----------------------------0---2---------------2---2-------4---|
A|3---------------3-----------------------------------------------|
E|----------------------------------------------------------------|

1:00

G|----------------------------------------------------------------|
D|----------------------------------------------------------------| x3
A|0---------------0---0-------------------------------------------|
E|--------------------------------3---------------3---3-----------|

G|----------------------------------------------------------------|
D|------------------------------------------------------------2---|
A|0---------------------------------------------------------------|
E|----------------------------------------------------------------|

G|2-------------------------------2-------------------------------|
D|----------------------------2-------------------------------2---|
A|----------------------------------------------------------------|
E|----------------------------------------------------------------|

1:21

G|2---------------------------------------------------------------|
D|------------2---2---------------0-----------2---2---------------|
A|----------------------------------------------------------------|
E|----------------------------------------------------------------|

G|2-----------------------------------7-------7-------7-----------|
D|------------2---2-----------4---5---------------------------0---|
A|----------------------------------------------------------------|
E|----------------------------------------------------------------|

G|----7-------7-------7-----------2-------------------------------|
D|5---------------------------2---------------2---2---------------|
A|----------------------------------------------------------------|
E|----------------------------------------------------------------|

G|--------------------------------2-------------------------------|
D|------------2---2---------------------------2---2-----------2---|
A|0---------------------------------------------------------------|
E|----------------------------------------------------------------|

G|0---7-------7-------7---------------7-------7-------7-----------|
D|----------------------------0---5---------------------------5---|
A|----------------------------------------------------------------|
E|----------------------------------------------------------------|

G|----------------------------------------------------------------|
D|2-----------2---2---------------2---2-------2---2---2-------2---|
A|----------------------------------------------------------------|
E|----------------------------------------------------------------|

1:48

G|2---------------2-----------------------------------------------|
D|----------------------------4---2---------------2---2-------4---| x2
A|----------------------------------------------------------------|
E|----------------------------------------------------------------|

G|2---------------2-----------------------------------------------|
D|----------------------------4---2---------------2-----------0---|
A|----------------------------------------------------------------|
E|----------------------------------------------------------------|

G|----------------------------------------------------------------|
D|----------------------------0---2---------------2---------2/4---|
A|3---------------3-----------------------------------------------|
E|----------------------------------------------------------------|

2:04

G|2---------------2-----------------------------------------------|
D|----------------------------4---2---------------2---2-------4---|
A|----------------------------------------------------------------|
E|----------------------------------------------------------------|

G|2---------------2-----------------------------------------------|
D|----------------------------4---2---------------2-----------0---|
A|----------------------------------------------------------------|
E|----------------------------------------------------------------|

G|----------------------------------------------------------------|
D|----------------------------0---2---------------2---2-------4---|
A|3---------------3-----------------------------------------------|
E|----------------------------------------------------------------|

2:16

G|2---------------2-----------------------------------------------|
D|----------------------------4---2---------------2-----------2---|
A|----------------------------------------------------------------|
E|----------------------------------------------------------------|

G|2-------------------------------2-------------------------------|
D|----------------------------2-------------------------------2---| x7 to fadeout.
A|----------------------------------------------------------------|
E|----------------------------------------------------------------|
Добавлено: 12.06.2016
Другие материалы по этой песне:
  • Аккорды и текст

Страница создана 12.06.2016
http://primanota.ru/gordian-knot/year-of-sun-chords.htm
Привет, Гость.
Предлагаем пройти революционный курс по гитаре.
Подарок от PrimaNota.Ru, забирай!