PrimaNota.ru - самый крупный в мире бесплатный архив песенных текстов, аккордов, табулатур и нот


Gordian Knot - Gracelive - таба, видео

Регистрация Запомнить меня
Войти через:  Facebook Google Twitter Vk Yandex Mail.ru

Gordian Knot - Gracelive - таба, видео

Печатать
Просмотров: 111
Band: Gordian Knot
Album: Emergent
Song: Grace (Live)


Tuning: Drop D (DADGBE)

Rhythm Played Through Out Song

E|--------------------------------|
B|--------------------------------|
G|-----------------------3h2------|
D|--0--2--3-----0--2--3------3----|
A|--------------------------------|
D|-----------3--------------------|


Solo Begins at 0:20


E|----------------------------------------------------------|
B|--------------------------17------------------------------|
G|--13h-12----------13h-12------17--13h-12----------12h-10--|
D|----------12h-10--------------------------12h-10----------|
A|----------------------------------------------------------|
E|----------------------------------------------------------|



E|--------------------------8----------------------------------|
B|-------------------------------------------------------------|
G|--10h-12--14--12--12--10-----10--9--5------------------------|   x2
D|---------------------------------------10--8--7--7--5--5h-3--|
A|-------------------------------------------------------------|
E|-------------------------------------------------------------|

It gets pretty crazy after this part with multiple loopings of different guitar riffs, 
and Trey Gunn's chapman stick doesnt help either to make it easy to tab. Help? D: oh and 
Yea Chris, I tabbed part of a Gordian Knot Song.^,^
Добавлено: 03.12.2013
Вам также может быть интересно:
Другие материалы по этой песне:
  • Аккорды и текст

Страница создана 03.12.2013
http://primanota.ru/gordian-knot/gracelive-chords.htm
Привет, Гость.
Предлагаем пройти революционный курс по гитаре.
Подарок от PrimaNota.Ru, забирай!