PrimaNota.ru - самый крупный в мире бесплатный архив песенных текстов, аккордов, табулатур и нот


Goran Vejvoda - Nikopol Deux - бас-таба, видео

Регистрация Запомнить меня
Войти через:  Facebook Google Twitter Vk Yandex Mail.ru

Goran Vejvoda - Nikopol Deux - бас-таба, видео

Печатать
Просмотров: 103
Уроки эстрадного вокала в Санкт-Петербурге
Song: Nikopol deux
Artist: Goran Vejvoda
Album: Immortel, ad vitam Soundtrack
Year: 2004
Tabber: beranger80@hotmail.com



0:00
g---------------2-------|
d--2--4-5--4-2----5--4--|
a-----------------------|
e-----------------------|

g-----------------------|
d--2--4-5-4-2-----------|
a--------------5-2------|
e--------------------0--|



0:15
g---------------7-5--4------|
d--2--4-5--4-2--------------|
a---------------------------|
e------------------------0--|

g-----------------------|
d--2--4-5-4-2-----------|
a--------------5-2------|
e--------------------0--|



0:31
g---------------2-----------|
d--2--4-5--4-2----5--4-5-4--|
a---------------------------|
e---------------------------|

g-----------------------|
d--2--4-5-4-2-----------|
a--------------5-2------|
e--------------------0--|



0:45
g---------------7-5--4-5-4-----|
d--2--4-5--4-2-----------------|
a------------------------------|
e----------------------------0-|

g-----------------------------------|
d--2--4-5--4-2--2----2----2----2----|
a-----------------5----5----5----5--|
e-----------------------------------|



1:00
g------------------------------------------|
d------------------------------------------|
a--5-3--5-3--5-3--5-3--3-2--3-2--3-2--3-2--|
e------------------------------------------|



1:11
g--0--|
d--2--|
a--2--|
e--0--|
Добавлено: 27.12.2015
Другие материалы по этой песне:
  • Аккорды и текст

Страница создана 27.12.2015
http://primanota.ru/goran-vejvoda/nikopol-deux-chords.htm
Привет, Гость.
Предлагаем пройти революционный курс по гитаре.
Подарок от PrimaNota.Ru, забирай!