PrimaNota.ru - самый крупный в мире бесплатный архив песенных текстов, аккордов, табулатур и нот


Goose - Black Gloves - таба, видео

Регистрация Запомнить меня
Войти через:  Facebook Google Twitter Vk Yandex Mail.ru

Goose - Black Gloves - таба, видео

Печатать
Просмотров: 230
Artist: Goose
Song: Black Gloves

Tabbed by Tomvdb

(0:03)    Synth

e|---------------------|
B|---------------------|
G|---------------------|
D|---------------------|
A|---------------------|
E|--12~~~~~~~~~~-------|

(0:18)   Guitar  (6x)
e|------------------------------------------------------------|
B|------------------------------------------------------------|
G|------------------------------------------------------------|
D|------------------------------------------------------------|
A|------------------------------------------------------------|
E|-0-12-10-0-12-10--\5--0-12-10-0-12-10--\3--0-12-10-0-12-10--|

e|--------------------------|
B|--------------------------|
G|--------------------------|
D|--------------------------|
A|--------------------------|
E|-\3-5-3-5-3-5/6\5p3-5p3p0-|

 After 4 times
(0:48)  Synth

e|-----------------------------------|   (2x)
B|-----------------------------------|
G|-----------------------------------|
D|-----------------------------------|
A|--7---13-7------7---10-4--13--7----|
E|-----------------------------------|

(1:04)    Synth   (4x)
e|-----------------------------------------------|
B|-----------------------------------------------|
G|-----------------------------------------------|
D|-----------------------------------------------|
A|----7~~~~~~~~5~~10~~3~~~~~~~~~~~~--------------|
E|-----------------------------------------------|

Second time:  Guitar
(1:13)
e|-----------------------|      (8x)
B|-----------------------|
G|-----------------------|
D|-----------------------|
A|--00-7-5-00-7-5--7-----|
E|-----------------------|
    P.M.............

(1:27)    Guitar
e|------------------------------------------------------------|
B|------------------------------------------------------------|
G|------------------------------------------------------------|
D|------------------------------------------------------------|
A|------------------------------------------------------------|
E|-0-12-10-0-12-10--\5--0-12-10-0-12-10--\3--0-12-10-0-12-10--|

e|--------------------------|
B|--------------------------|
G|--------------------------|
D|--------------------------|
A|--------------------------|
E|-\3-5-3-5-3-5/6\5p3-5p3p0-|

4th and 6th time, don't play last part

(1:27)       Synth
e|-------------------------------/12/////////////////////////////24-|
B|------------------------------------------------------------------|
G|------------------------------------------------------------------|
D|------------------------------------------------------------------|
A|--12~~~~~~~~~~~~~~~~~~~~~~~---------------------------------------|
E|------------------------------------------------------------------|

e|----------------------------------------------------------------------|   B|--|
G|------------------------------------------------------------------------------|
D|------------------------------------------------------------------------------|
A|--7---13-7------7---10-4--13--7---------7---13-7------7---10-7-10-4-13--------|
E|------------------------------------------------------------------------------|

e|----------------------------------------------------------------------|
B|----------------------------------------------------------------------|
G|----------------------------------------------------------------------|
D|----------------------------------------------------------------------|
A|--7---13-7------7---10-4--13--7---------7---13-7------7---10-7-4-12-4-|
E|----------------------------------------------------------------------|

e|----------------------------------------------------------------------|
B|----------------------------------------------------------------------|
G|----------------------------------------------------------------------|
D|----------------------------------------------------------------------|
A|--7---13-7------7---10-4--13--7---------7---13-7------7---10-4--13--7-|
E|----------------------------------------------------------------------|

(2:28)
e|----------------------------------------------------|
B|----------------------------------------------------|
G|----------------------------------------------------|
D|----------------------------------------------------|
A|--7~~~10~~~13~~~7~~~10~~~13~~~~~~~~-----------------|
E|----------------------------------------------------|

A great song from a great band!!!!

http://www.goosemusic.com/
Добавлено: 29.07.2012
Другие материалы по этой песне:

Страница создана 20.04.2012
http://primanota.ru/goose/black-gloves-chords.htm
Привет, Гость.
Предлагаем пройти революционный курс по гитаре.
Подарок от PrimaNota.Ru, забирай!