PrimaNota.ru - самый крупный в мире бесплатный архив песенных текстов, аккордов, табулатур и нот


Goon Moon - The Golden Ball - бас-таба, видео

Регистрация Запомнить меня
Войти через:  Facebook Google Twitter Vk Yandex Mail.ru

Goon Moon - The Golden Ball - бас-таба, видео

Печатать
Просмотров: 188
Уроки эстрадного вокала в Санкт-Петербурге
Title: The Golden Ball
Band: Goon Moon
Bassist: Jeordie White
Tabbed by: The Testtube

This is my first tab. This riff is the main bass riff to the song.


Bass:

    Q    Q    E  E  E  E     Q    Q    E  E  E  E     Q    Q    E   E  E   E
G|---------------5--3-----|---------------5--3-----|---------------10--8------|
D|--3----3----3--------5--|--3----3----3--------5--|--8----8----8---------10--|
A|------------------------|------------------------|--------------------------|
E|------------------------|------------------------|--------------------------|


    Q    Q    E   E  E   E     Q    Q    E  E  E  E     Q    Q    E  E  E  E
G|---------------10--8------|---------------5--3-----|---------------5--3-----|
D|--8----8----8---------10--|--3----3----3--------5--|--3----3----3--------5--|
A|--------------------------|------------------------|------------------------|
E|--------------------------|------------------------|------------------------|


    Q    Q    E  E  E  E     Q    Q    E  E  E  E
G|------------------------|------------------------|
D|---------------5--3-----|---------------5--3-----|
A|--3----3----3--------5--|--3----3----3--------5--|
E|------------------------|------------------------|


Duration Legend
---------------
Q - quarter
E - 8th
Добавлено: 09.07.2012
Другие материалы по этой песне:
  • Аккорды и текст

Страница создана 09.07.2012
http://primanota.ru/goon-moon/the-golden-ball-chords.htm
Привет, Гость.
Предлагаем пройти революционный курс по гитаре.
Подарок от PrimaNota.Ru, забирай!