PrimaNota.ru - самый крупный в мире бесплатный архив песенных текстов, аккордов, табулатур и нот


Goon Moon - Sleep With A Gun - таба, видео

Регистрация Запомнить меня
Войти через:  Facebook Google Twitter Vk Yandex Mail.ru

Goon Moon - Sleep With A Gun - таба, видео

Печатать
Просмотров: 485
Уроки эстрадного вокала в Санкт-Петербурге
for those of you that don't know, Goon Moon is a band that consists of Jeoride White 
Twiggy Ramirez)[ex-Manson, ex-APC, current NIN] and Chris Goss. This is my favorite song by 
With a Gun". Hope you enjoy! Go easy on me, this is my first tab!

Tuning: Half-Step Down
Eb Ab Db Gb Bb eb
D# G# C# F# A# D#

NOTE: I'm not tabbing the strumming, just listen to the song.

Intro (mezzo piano volume)

eb|-------|-------|-------|-------|
Bb|---8---|---8---|---3---|---3---|
Gb|---7---|---8---|---3---|---2---|   Play Twice
Db|---5---|---5---|---3---|---3---|
Ab|-------|-------|-------|-------|
Eb|-------|-------|-------|-------|
"Come...Come Inside....."

Pre-Chorus 1 (mezzo piano volume)

eb|-------|-------|
Bb|---1---|---3---|
Gb|---0---|---2---|
Db|---1---|---3---|   Play Twice
Ab|-------|-------|
Eb|-------|-------|
"Fall Fast Asleep"

Chorus (Same As Intro) (mezzo forte volume)

eb|-------|-------|-------|-------|
Bb|---8---|---8---|---3---|---3---|
Gb|---7---|---8---|---3---|---2---|   Play Twice
Db|---5---|---5---|---3---|---3---|
Ab|-------|-------|-------|-------|
Eb|-------|-------|-------|-------|
"Dried Up And Changed My Name..."

Post-Chorus (Same As Pre-Chorus) (mezzo forte volume)

eb|-------|-------|
Bb|---1---|---3---|
Gb|---0---|---2---|
Db|---1---|---3---|   Play Twice
Ab|-------|-------|
Eb|-------|-------|
"Sleep With a Gun"


[REPEAT CHORUS AND POST-CHORUS AGAIN]
[EACH PLAYED AT A FORTE VOLUME AND WITH EXPRESSION]


Outro (Same As Intro) (piano volume)

eb|-------|-------|-------|-------|
Bb|---8---|---8---|---3---|---3---|
Gb|---7---|---8---|---3---|---2---|   Play Twice
Db|---5---|---5---|---3---|---3---|
Ab|-------|-------|-------|-------|
Eb|-------|-------|-------|-------|
"Drive Away...Drive Away..."


LYRICS

Come, Come Inside
Theres Many Places Here When You Can't Hide
Dont, Don't Be Afraid
It Only Hurts, The Very First Time

Fall Fast Asleep (x2)

Dried Up And Changed My Name
Drift Back, Behave The Same
Want To Believe In Something Else   (x2)
Digging My Hole To Hell

Sleep With A Gun (x2)

Dried Up And Changed My Name
Drift Back, Behave The Same
Want To Believe In Something Else   (x2)
Digging My Hole To Hell

Sleep With A Gun (x2)

Drive Away
Drive Away                        (x2)
Drive Away As Fast As You Can..
Добавлено: 10.03.2012
Вам также может быть интересно:
Другие материалы по этой песне:
  • Аккорды и текст

Страница создана 10.03.2012
http://primanota.ru/goon-moon/sleep-with-a-gun-chords.htm
Привет, Гость.
Предлагаем пройти революционный курс по гитаре.
Подарок от PrimaNota.Ru, забирай!