PrimaNota.ru - самый крупный в мире бесплатный архив песенных текстов, аккордов, табулатур и нот


Goon Moon - Feel Like This - таба, видео

Регистрация Запомнить меня
Войти через:  Facebook Google Twitter Vk Yandex Mail.ru

Goon Moon - Feel Like This - таба, видео

Печатать
Просмотров: 181
Уроки эстрадного вокала в Санкт-Петербурге
-------------------------------------------------------------------------------
                             FEEL LIKE THIS - Goon Moon
-------------------------------------------------------------------------------
Tabbed by: ironmanben
Email: bentrooper@gmail.com

Tuning: 1/2 step down (eb Bb Gb Db Ab Eb)

intro: (guitar 2 only)
e|------------------------------------------|
B|------------------------------------------|
G|------------------------------------------|
D|------------------------------------------|
A|-----7-------------------7---------44-----|
E|-6-7---0-00-00-33-00-6-7---6-66-66----6-0-|

e|----------------------------------------|
B|----------------------------------------|
G|----------------------------------------|
D|----------------------------------------|
A|-----7-------------------7---------44---|
E|-6-7---0-00-00-33-00-6-7---6-66-66----6-|


main riff x6:
e|------------------------------------------|
B|------------------------------------------|
G|------------------------------------------|
D|------------------------------------------|
A|-----7-------------------7---------44-----|
E|-6-7---0-00-00-33-00-6-7---6-66-66----6-0-|
 |                                          |
e|------------------------------------------|
B|------------------------------------------|
G|------------------------------------------|
D|------------------------------------------|
A|-----7-------------------7---------44-----|
E|-5-6---0-00-00-33-00-5-6---6-66-66----6-0-|


pre-chorus:
         | x3                        |
e|-------|---------------------------|----------------------------------|
B|-------|---------------------------|----------------------------------|
G|-------|---------------------------|----------------------------------|
D|-------|-7-778-8810-101011-11-1111-|--7-778-88-10-1010101010101010----|
A|-----7-|-x-xxx-xxx--x-x-x--x--x-x--|--x-xxx-xx-x--x-x-x-x-x-x-x-x-----|
E|-5-6---|-5-556-668--8-8-9--9--9-9--|--5-556-66-8--8-8-8-8-8-8-8-8--8\-|
 |       |                           |
e|-------|---------------------------|----------------------------------|
B|-------|---------------------------|----------------------------------|
G|-------|---------------------------|----------------------------------|
D|-------|---------------------------|----------------------------------|
A|-----7-|-7-778-8810-101011-11-1111-|--7-778-88-10-1010101010101010----|
E|-5-6---|-5-556-668--8-8-9--9--9-9--|--5-556-66-8--8-8-8-8-8-8-8-8-----|

main riff x6
pre-chorus x1

chorus part 1 x3:
e|-----------------------------------------|
B|-----------------------------------------|
G|-----------------------------------------|
D|-----------------------------------------|
A|-10-8-7-5-55555555555-5-7-8-88888888888--|
E|-8--6-5-3-33333333333-3-5-6-66666666666--|
 |                                         |
e|-----------------------------------------|
B|-----------8---8---8-----6-8-668-668-668-|
G|----------7-7-7-7-7-7-7------------------|
D|-----------------------------------------|
A|-----------------------------------------|
E|-----------------------------------------|

chorus part 2:
e|-----------------|
B|-----------------|
G|-----------------|
D|-----------------|
A|-555555555555----|
E|-333333333333----|
 |                 |
e|-----------------|
B|--8----8---8---8-|
G|-7-7-7--7-7-7-7--|
D|-----------------|
A|-----------------|
E|-----------------|


main riff x2
main riff x2 (guitars silent)
pre-chorus x1
chorus part 1 x3

end x1:
e|------------|
B|------------|
G|------------|
D|------------|
A|-7-77777777-|
E|-5-55555555-|
 |            |
e|------------|
B|------------|
G|------------|
D|------------|
A|-7-77777777-|
E|-5-55555555-|

| /  slide up
| \  slide down
| h  hammer-on
| p  pull-off
| ~  vibrato
| +  harmonic
| x  Mute note
===============================================================================
Добавлено: 15.07.2012
Другие материалы по этой песне:
  • Аккорды и текст

Страница создана 15.07.2012
http://primanota.ru/goon-moon/feel-like-this-chords.htm
Привет, Гость.
Предлагаем пройти революционный курс по гитаре.
Подарок от PrimaNota.Ru, забирай!