PrimaNota.ru - самый крупный в мире бесплатный архив песенных текстов, аккордов, табулатур и нот


Goodnight Nurse - This Is It - таба, бас-таба, видео

Регистрация Запомнить меня
Войти через:  Facebook Google Twitter Vk Yandex Mail.ru

Goodnight Nurse - This Is It - таба, бас-таба, видео

Печатать
Просмотров: 237
Yo!

My 2nd tab, i'm at school atm but i'm bored and this is a damn good song!

Song: This Is It
Band: Goodnight Nurse
Album: Keep Me On Your Side

Guitar 1: Sam McCarthy
Guitar 2: Joel Little

Intro: 0:00-0:11
Guitar 1 Only:

e|------------------------------------------------------|
B|--6------6-----4-----4------6-----6-------7----7------|
G|------6-----6------6-----6------6------6-----6-----6--|
D|----6------6-----6-----6------8------8------8----8----|  x2
A|------------------------------------------------------|
E|------------------------------------------------------|

Band Comes In: 0:12-0:25
Guitar 1:
e|------------------------------------------------------|
B|--6------6-----4-----4------6-----6-------7----7------|
G|------6-----6------6-----6------6------6-----6-----6--|
D|----6------6-----6-----6------8------8------8----8----|  x2
A|------------------------------------------------------|
E|------------------------------------------------------|

Guitar 2:
e|--------------------------------|
B|--------------------------------|
G|--666666------------------------|
D|--666666-666666-888888-444444---|  x2
A|--444444-666666-888888-444444---|
E|---------444444-666666-222222---|

"Lets Take It All Away..": 0:26-0:43
Guitar One Only:
e|------------------------------------------|
B|------------------------------------------|
G|--666666666666----------------------------|
D|--666666666666-888888888888-444444444444--| x2
A|--444444444444-888888888888-444444444444--|
E|---------------666666666666-222222222222--|

"And I Know, This Is It..": 0:44-0:50
Guitar 2 Only:
e|--------------------------------|
B|--------------------------------|
G|--666666------------------------|
D|--666666-666666-888888-444444---|   (Palm Mute)
A|--444444-666666-888888-444444---|
E|---------444444-666666-222222---|

"Lets Take It Slow..": 0:51-0:57
Guitar 1:
e|---------------------|
B|---------------------|
G|--1313131313131313---|
D|---x-x-x-x-x-x-x-x---|
A|--1111111111111111---|
E|---------------------|

Guitar 2:
e|--------------------------------|
B|--------------------------------|
G|--666666------------------------|
D|--666666-666666-888888-444444---|   (Palm Mute)
A|--444444-666666-888888-444444---|
E|---------444444-666666-222222---|

Instrumental Interlude: 0:57-1:09
Guitar 1:
e|------------------------------------------------------|
B|--6------6-----4-----4------6-----6-------7----7------|
G|------6-----6------6-----6------6------6-----6-----6--|
D|----6------6-----6-----6------8------8------8----8----|  x2
A|------------------------------------------------------|
E|------------------------------------------------------|

Guitar 2:
e|--------------------------------|
B|--------------------------------|
G|--666666------------------------|
D|--666666-666666-888888-444444---|  x2
A|--444444-666666-888888-444444---|
E|---------444444-666666-222222---|

"Lets Have It All Our Way..": 1:10-1:28
Guitar 1 Only:
e|------------------------------------------|
B|------------------------------------------|
G|--666666666666----------------------------|
D|--666666666666-888888888888-444444444444--| x2
A|--444444444444-888888888888-444444444444--|
E|---------------666666666666-222222222222--|

Chrous:
Guitar 1:
e|---------------------|
B|---------------------|
G|--10---8----10---11--|
D|--x----x----x----x---| x4 (Play Each Octave Chord Six Times)
A|--8----6----8----9---|
E|---------------------|

Solo/Bridge:
Guitar 1:
e|----------------------------------|
B|---14-14-14-13-13-13-9-9-9-6-6-6--|
G|----------------------------------| These can be played as octave chords.
D|----------------------------------| It all personal preference really..
A|----------------------------------|
E|----------------------------------|

Then afterwards repeat instrumental bit, then a last chorus, then your done!

I apoligize for the tab taking so long (:

Happy new years!

Argh gotta scoot, i'll come back asap and finish!! (:
Добавлено: 29.06.2012
Другие материалы по этой песне:
  • Аккорды и текст

Страница создана 01.04.2012
http://primanota.ru/goodnight-nurse/this-is-it-chords.htm
Привет, Гость.
Предлагаем пройти революционный курс по гитаре.
Подарок от PrimaNota.Ru, забирай!