PrimaNota.ru - самый крупный в мире бесплатный архив песенных текстов, аккордов, табулатур и нот


Goodnight Nurse - The Night - текст песни, таба, видео

Регистрация Запомнить меня
Войти через:  Facebook Google Twitter Vk Yandex Mail.ru

Goodnight Nurse - The Night - текст песни, таба, видео

Печатать
Просмотров: 140
Уроки эстрадного вокала в Санкт-Петербурге
Tabbed by:JK63
Email:JRk-1993@hotmail.com         h= hammer on
                                   p= Pull off
Tuning: Standard                   

it goes:

IntroX3
VerseX1
Pre-ChorusX1
Chorusx2
Introx2
Versex1
Pre-ChorusX1
ChorusX2
Bridgex2
ChorusX4
Outrox2


Intro/Outro 
e|-3-3h4p3--3-3h4p3------------------------------|
B|--------4--------4--444-666-888-444-666-888----|
G|-----------------------------------------------|
D|-----------------------------------------------|
A|-----------------------------------------------|
E|-----------------------------------------------|


Verse:
e|----------------------------------|
B|----------------------------------|
G|-8--------------------------------|
D|-8-8-10-6-8-10--------------------|
A|-6-8-10-6-8-10--------------------|
E|---6-8--4-6-8---------------------|


Pre-chorus:
e|-----------------|
B|-----------------|
G|-----------------|
D|-6-8-10-6-8------|
A|-6-8-10-6-8------|
E|-4-6-8--4-6------


Chorus:
e|-6-4-6-8--6-4------------|
B|-6-4-6-8--6-4------------|
G|-8-5-7-8--7-5------------|
D|-8-6-8-10-8-6------------|
A|-6-6-8-10-8-6------------|
E|---4-6-8--6-4------------|

Bridge:
e|----------|
B|----------|
G|-8--------|
D|-8-8-10---|
A|-6-8-10---|
E|---6-8----|
Добавлено: 05.06.2012
Другие материалы по этой песне:

Страница создана 14.03.2012
http://primanota.ru/goodnight-nurse/the-night-chords.htm
Привет, Гость.
Предлагаем пройти революционный курс по гитаре.
Подарок от PrimaNota.Ru, забирай!