PrimaNota.ru - самый крупный в мире бесплатный архив песенных текстов, аккордов, табулатур и нот


Goodnight Nurse - Suffocating Slow - текст песни, таба, видео

Регистрация Запомнить меня
Войти через:  Facebook Google Twitter Vk Yandex Mail.ru

Goodnight Nurse - Suffocating Slow - текст песни, таба, видео

Печатать
Просмотров: 86
Here is the whole song done completely by ear.  I'm pretty sure this is correct.  There 
be a duration off here and there, just let me know.  All the chords should be correct.

I know they play in Dropped D/Dropped C usually, but hey, this works just as well.

Duration Legend
---------------
W - whole
H - half
Q - quarter
E - 8th
S - 16th

TP - tremolo picking

Intro
      TP    TP    TP    TP       TP    TP    TP    TP
      Q     Q     Q     Q        Q     Q     Q     Q
E||--------------------------|--------------------------|
B||--------------------------|--------------------------|
G||--------------------------|--------------------------|x2
D||--------------------------|--------------------------|
A||--20----20----20----20----|--16----16----16----16----|
E||--------------------------|--------------------------|


Verse
      TP    TP    TP    TP       TP    TP    TP    TP
      Q     Q     Q     Q        Q     Q     Q     Q
--------------------------|--------------------------|
--------------------------|--------------------------|
--------------------------|--------------------------|x2
--------------------------|--------------------------|
--20----20----20----20----|--16----16----16----16----|
--------------------------|--------------------------|


  E  E  Q    Q    Q
-----------------------|
-----------------------|
--6--6--6----6----6----|
--6--6--6----6----6----|
--4--4--4----4----4----|
-----------------------|


  Q    Q    Q    Q
----------------------|
----------------------|
----------------------|
--4----4----4----4----|
--4----4----4----4----|
--2----2----2----2----|

      TP    TP    TP    TP       TP    TP    TP    TP
      Q     Q     Q     Q        Q     Q     Q     Q
--------------------------|--------------------------|
--------------------------|--------------------------|
--------------------------|--------------------------|
--------------------------|--------------------------|
--20----20----20----20----|--16----16----16----16----|
--------------------------|--------------------------|

Pre Chorus

E  E  Q    Q    Q       Q    Q    Q    Q
-----------------------|----------------------|
-----------------------|----------------------|
--6--6--6----6----6----|----------------------|
--6--6--6----6----6----|--4----4----4----4----|
--4--4--4----4----4----|--4----4----4----4----|
-----------------------|--2----2----2----2----|


  E  E  Q    Q    Q       Q    Q    Q    S S S S
-----------------------|-------------------------|
-----------------------|-------------------------|
--6--6--6----6----6----|-------------------------|
--6--6--6----6----6----|--6----6----6----x-x-x-x-|
--4--4--4----4----4----|--6----6----6----x-x-x-x-|
-----------------------|--4----4----4----x-x-x-x-|

Chorus

  Q    E  E  E  E  Q       Q    E  E  E  E  Q
------------------------|------------------------|
------------------------|------------------------|
--6----6--6--6--6--6----|--6----6--6--6--6--6----|
--6----6--6--6--6--6----|--6----6--6--6--6--6----|
--4----4--4--4--4--4----|--4----4--4--4--4--4----|
------------------------|------------------------|


  Q    E  E  E  E  Q       Q    E  E  E  E  Q
------------------------|------------------------|
------------------------|------------------------|
--3----3--3--3--3--3----|--3----3--3--3--3--3----|
--3----3--3--3--3--3----|--3----3--3--3--3--3----|
--1----1--1--1--1--1----|--1----1--1--1--1--1----|
------------------------|------------------------|


  Q    E  E  E  E  Q       Q    E  E  E  E  Q
------------------------|------------------------|
------------------------|------------------------|
------------------------|------------------------|
--4----4--4--4--4--4----|--4----4--4--4--4--4----|
--4----4--4--4--4--4----|--4----4--4--4--4--4----|
--2----2--2--2--2--2----|--2----2--2--2--2--2----|


  E  E  E  E  E  E  E  E     E  E  E  E  E  E  E  E
--------------------------|--------------------------|
--------------------------|--------------------------|
--------------------------|--------------------------|
--6--6--6--6--6--6--6--6--|--6--6--6--6--6--6--6--6--|
--6--6--6--6--6--6--6--6--|--6--6--6--6--6--6--6--6--|
--4--4--4--4--4--4--4--4--|--4--4--4--4--4--4--4--4--|

Fill
      TP    TP    TP    TP       TP    TP    TP    TP
      Q     Q     Q     Q        Q     Q     Q     Q
--------------------------|--------------------------|
--------------------------|--------------------------|
--------------------------|--------------------------|x2
--------------------------|--------------------------|
--20----20----20----20----|--16----16----16----16----|
--------------------------|--------------------------|

Verse
      TP    TP    TP    TP       TP    TP    TP    TP
      Q     Q     Q     Q        Q     Q     Q     Q
--------------------------|--------------------------|
--------------------------|--------------------------|
--------------------------|--------------------------|x2
--------------------------|--------------------------|
--20----20----20----20----|--16----16----16----16----|
--------------------------|--------------------------|


 E  E  Q    Q    Q
-----------------------|
-----------------------|
--6--6--6----6----6----|
--6--6--6----6----6----|
--4--4--4----4----4----|
-----------------------|


  Q    Q    Q    Q
----------------------|
----------------------|
----------------------|
--4----4----4----4----|
--4----4----4----4----|
--2----2----2----2----|

      TP    TP    TP    TP       TP    TP    TP    TP
      Q     Q     Q     Q        Q     Q     Q     Q
E||--------------------------|--------------------------|
B||--------------------------|--------------------------|
G||--------------------------|--------------------------|
D||--------------------------|--------------------------|
A||--20----20----20----20----|--16----16----16----16----|
E||--------------------------|--------------------------|

Pre Chorus

E  E  Q    Q    Q       Q    Q    Q    Q
-----------------------|----------------------|
-----------------------|----------------------|
--6--6--6----6----6----|----------------------|
--6--6--6----6----6----|--4----4----4----4----|
--4--4--4----4----4----|--4----4----4----4----|
-----------------------|--2----2----2----2----|


  E  E  Q    Q    Q       Q    Q    Q    S S S S
-----------------------|-------------------------|
-----------------------|-------------------------|
--6--6--6----6----6----|-------------------------|
--6--6--6----6----6----|--6----6----6----x-x-x-x-|
--4--4--4----4----4----|--6----6----6----x-x-x-x-|
-----------------------|--4----4----4----x-x-x-x-|

Chorus

  Q    E  E  E  E  Q       Q    E  E  E  E  Q
------------------------|------------------------|
------------------------|------------------------|
--6----6--6--6--6--6----|--6----6--6--6--6--6----|
--6----6--6--6--6--6----|--6----6--6--6--6--6----|
--4----4--4--4--4--4----|--4----4--4--4--4--4----|
------------------------|------------------------|


  Q    E  E  E  E  Q       Q    E  E  E  E  Q
------------------------|------------------------|
------------------------|------------------------|
--3----3--3--3--3--3----|--3----3--3--3--3--3----|
--3----3--3--3--3--3----|--3----3--3--3--3--3----|
--1----1--1--1--1--1----|--1----1--1--1--1--1----|
------------------------|------------------------|


  Q    E  E  E  E  Q       Q    E  E  E  E  Q
------------------------|------------------------|
------------------------|------------------------|
------------------------|------------------------|
--4----4--4--4--4--4----|--4----4--4--4--4--4----|
--4----4--4--4--4--4----|--4----4--4--4--4--4----|
--2----2--2--2--2--2----|--2----2--2--2--2--2----|


  E  E  E  E  E  E  E  E     E  E  E  E  E  E  E  E
--------------------------|--------------------------|
--------------------------|--------------------------|
--------------------------|--------------------------|
--6--6--6--6--6--6--6--6--|--6--6--6--6--6--6--6--6--|
--6--6--6--6--6--6--6--6--|--6--6--6--6--6--6--6--6--|
--4--4--4--4--4--4--4--4--|--4--4--4--4--4--4--4--4--|

Bridge

  E  E  E  E  E  E  E  E
--------------------------|
--------------------------|
--------------------------|
--4--4--x--x--4--4--x--x--|
--4--4--x--x--4--4--x--x--|
--2--2--x--x--2--2--x--x--|


  E  E  E  E  E  E  E  E     E  E  E  E  E  E  E  E
--------------------------|--------------------------|
--------------------------|--------------------------|
--3--3--------------------|--------------------------|
--3--3--x--x--6--6--x--x--|--4--4--x--x--4--4--x--x--|
--1--1--x--x--6--6--x--x--|--4--4--x--x--4--4--x--x--|
--------x--x--4--4--x--x--|--2--2--x--x--2--2--x--x--|


  E  E  E  E  E  E  E  E     E  E  E  E  E  E  E  E
--------------------------|--------------------------|
--------------------------|--------------------------|
--------------------------|--------------------------|
--6--6--x--x--4--4--x--x--|--4--4--------4--4--------|
--4--4--x--x--4--4--x--x--|--4--4--4--4--4--4--4--4--|
--2--2--x--x--2--2--x--x--|--2--2--2--2--2--2--2--2--|


  E  E  E  E  E  E  E  E     E  E  E  E  E  E  E  E
--------------------------|--------------------------|
--------------------------|--------------------------|
--3--3--3--3--------------|--------------------------|
--3--3--3--3--6--6--6--6--|--6--6--6--6--6--6--6--6--|
--1--1--1--1--6--6--6--6--|--6--6--6--6--6--6--6--6--|
--------------4--4--4--4--|--4--4--4--4--4--4--4--4--|

  E  E  E  E  E  E  E  E
--------------------------|
--------------------------|
--------------------------|
--6--6--6--6--6--6--6--6--|
--6--6--6--6--6--6--6--6--|
--4--4--4--4--4--4--4--4--|

Fill
      TP    TP    TP    TP       TP    TP    TP    TP
      Q     Q     Q     Q        Q     Q     Q     Q
--------------------------|--------------------------|
--------------------------|--------------------------|
--------------------------|--------------------------|x2
--------------------------|--------------------------|
--20----20----20----20----|--16----16----16----16----|
--------------------------|--------------------------|

Verse
      TP    TP    TP    TP       TP    TP    TP    TP
      Q     Q     Q     Q        Q     Q     Q     Q
--------------------------|--------------------------|
--------------------------|--------------------------|
--------------------------|--------------------------|x2
--------------------------|--------------------------|
--20----20----20----20----|--16----16----16----16----|
--------------------------|--------------------------|

 Tie ~~~~~~~~~~~~~~~~~~~~~~~~~~~~~~~~~~  Tie~~~~~~~~~~~~~~~
-------------------|-------------------|-------------------|
-------------------|-------------------|-------------------|
--6----------------|--6----------------|-------------------|
--6----------------|--6----------------|--4----------------|
--4----------------|--4----------------|--4----------------|
-------------------|-------------------|--2----------------|


~~~~~~~~~~~~~~~~~~~
-------------------|
-------------------|
-------------------|
--4----------------|
--4----------------|
--2----------------|

Final Chorus


    Q    E  E  E  E  Q
|-------------------------|
|-------------------------|
|*--6----6--6--6--6--6----|
|*--6----6--6--6--6--6----|
|---4----4--4--4--4--4----|
|-------------------------|

Q    E  E  E  E  Q       Q    E  E  E  E  Q
------------------------|------------------------|
------------------------|------------------------|
--6----6--6--6--6--6----|--3----3--3--3--3--3----|
--6----6--6--6--6--6----|--3----3--3--3--3--3----|
--4----4--4--4--4--4----|--1----1--1--1--1--1----|
------------------------|------------------------|


  Q    E  E  E  E  Q       Q    E  E  E  E  Q
------------------------|------------------------|
------------------------|------------------------|
--3----3--3--3--3--3----|------------------------|
--3----3--3--3--3--3----|--4----4--4--4--4--4----|
--1----1--1--1--1--1----|--4----4--4--4--4--4----|
------------------------|--2----2--2--2--2--2----|


  Q    E  E  E  E  Q       E  E  E  E  E  E  E  E
------------------------|--------------------------|
------------------------|--------------------------|
------------------------|--------------------------|
--4----4--4--4--4--4----|--6--6--6--6--6--6--6--6--|
--4----4--4--4--4--4----|--6--6--6--6--6--6--6--6--|
--2----2--2--2--2--2----|--4--4--4--4--4--4--4--4--|


  E  E  E  E  E  E  E  E
---------------------------|
---------------------------|
--------------------------*|
--6--6--6--6--6--6--6--6--*|
--6--6--6--6--6--6--6--6---|
--4--4--4--4--4--4--4--4---|

Outro

   Q    Q    E  E  E  E
|------------------------|
|------------------------|
|--6----6----8--6--6--x--|
|--6----6----6--6--6--x--|
|--4----4----4--4--4--x--|
|------------------------|


  E  E  E  E  E  E  E  E     Q    Q    E  E  E  E     E  E  E  E  E  E  E  E
--------------------------|------------------------|--------------------------|
--------------------------|------------------------|--------------------------|
--x--6--6--6--8--6--6--x--|--6----6----8--6--6--x--|--x--6--6--6--8--6--6--x--|
--x--6--6--6--6--6--6--x--|--6----6----6--6--6--x--|--x--6--6--6--6--6--6--x--|
--x--4--4--4--4--4--4--x--|--4----4----4--4--4--x--|--x--4--4--4--4--4--4--x--|
--------------------------|------------------------|--------------------------|


   Q     Q    E  E  E  E     E   E   E   E  E   E  E  E      Q     Q    E  E  E  E
--------------------------|------------------------------|--------------------------|
--------------------------|------------------------------|--------------------------|
--10----10----8--6--6--x--|--x--10--10\--8--8\--6--6--x--|--10----10----8--6--6--x--|
---x-----x----x--x--x--x--|--x---x---x---x--x---x--x--x--|---x-----x----x--x--x--x--|
---8-----8----4--4--4--x--|--x---8---8\--6--6\--4--4--x--|---8-----8----4--4--4--x--|
--------------------------|------------------------------|--------------------------|


  E   E   E   E  E   E Tie ~~~~~~~~~~~~~~~~~~~~~~~~
------------------------------|-------------------||
------------------------------|-------------------||
--x--10--10\--8--8\--6--6-----|--6----------------||
--x---x---x---x--x---x--x-----|--x----------------||
--x---8---8\--6--6\--4--4-----|--4----------------||
------------------------------|-------------------||
Добавлено: 13.07.2012
Вам также может быть интересно:
Другие материалы по этой песне:
  • Аккорды и текст

Страница создана 13.07.2012
http://primanota.ru/goodnight-nurse/suffocating-slow-chords.htm
Привет, Гость.
Предлагаем пройти революционный курс по гитаре.
Подарок от PrimaNota.Ru, забирай!