PrimaNota.ru - самый крупный в мире бесплатный архив песенных текстов, аккордов, табулатур и нот


Goodnight Nurse - Simple - бас-таба, видео

Регистрация Запомнить меня
Войти через:  Facebook Google Twitter Vk Yandex Mail.ru

Goodnight Nurse - Simple - бас-таба, видео

Печатать
Просмотров: 97
Goodnight Nurse - Simple

4 String Bass
Normal Tuning: E / A / D / G
Tabbed By: Ron Bosgra
ronnie_firefly@hotmail.com

Da Netherlaaaaaaaandssssss!!!

----------------------------------------------------------------------------
INTRO:

G:-------------------------------------------------------|
D:-------------------------------------------------------|
A:-------------------------------------------------------|
E:-8-8-----5-5--3-3-----0-0--1-1-----5-5--3-3-----00-0---|

0:04

G:-----------------------------------------------|
D:-----------------------------------------------|
A:-----------------------------------------------|
E:-8-8---5-5--3-3---0-0--1-1---5-5--3-3---00-0---| X4
(3rd time, use one 8th fret less
and slide to the 5th fret.
listen to the rythem for support)
===================================================================

GUITAR PART ACOUSTIC:
BASS START AT: 0:30

G:7-5---4---4-5-5---0---|
D:----------------------|
A:----------------------|
E:----------------------|

G:--------------------------------------------------------------|
D:--------------------------------------------------------------|
A:----------------------------------------------2-----6-----4---|
E:--------------------------------------------------------------|

0:42

G:---------------------------------------------------|
D:---------------------------------------------------|
A:---------------------------------------------------|
E:--8--8--8--8--3--3--3--3--1--1--1--1--3--3--3--3---| x2

00:52

G:--------------------------|
D:--------------------------|
A:--------------------------|
E:-1-1---5-5-3-3---5-5--5---|

G:---------------------------------------------------|
D:---------------------------------------------------|
A:---------------------------------------------------|
E:-8-8---5-5--3-3---10-10--1-1---5-5--3-3---5-5--5---| x3

G:----------------------------------|
D:----------------------------------|
A:----------------------------------|
E:-8-8-----5-5--3-3-----10-10--8*---|

1:19

G:7-5---4---4-5-5---0---|
D:----------------------|
A:----------------------|
E:----------------------|

G:--------------------------------------------------------------|
D:--------------------------------------------------------------|
A:----------------------------------------------2-----6-----4---|
E:--------------------------------------------------------------|

1:31

G:---------------------------------------------------|
D:---------------------------------------------------|
A:---------------------------------------------------|
E:--8--8--8--8--3--3--3--3--1--1--1--1--3--3--3--3---| x2

G:--------------------------|
D:--------------------------|
A:--------------------------|
E:-1-1---5-5-3-3---5-5--5---|

G:-----------------------------------------------------------|
D:-----------------------------------------------------------|
A:-----------------------------------------------------------|
E:-8-8-----5-5--3-3-----10-10--1-1-----5-5--3-3-----5-5--5---| x3

G:------------------------------|
D:------------------------------|
A:------------------------------|
E:-8-8-----5-5--3-3-----10-10---|

2:00
BASS SOLO PART ^_^

G:-------------------------------------------------------|
D:-------------------------------------------------------|
A:-------------------------------------------------------|
E:-8-8-----5-5--3-3-----0-0--1-1-----5-5--3-3-----00-0---|

G:---------------------------------------------------------|
D:---------------------------------------------------------|
A:---------------------------------------------------------|
E:-8-8-----5-5--3-3-----0-0--1-1-----5-5--3-3-----00-0-8---| x2

2:14 LYRICS & GUITAR ONLY

G:---------------------------------------------------------|
D:---------------------------------------------------------|
A:---------------------------------------------------------|
E:---------------------------------------------------------|

2:25

G:---------------------------------------------------|
D:---------------------------------------------------|
A:---------------------------------------------------|
E:--8--8--8--8--3--3--3--3--1--1--1--1--3--3--3--3---| x4

2:45

G:--------------------------|
D:--------------------------|
A:--------------------------|
E:-1-1---5-5-3-3---5-5--5---|

G:-----------------------------------------------------------|
D:-----------------------------------------------------------|
A:-----------------------------------------------------------|
E:-8-8-----5-5--3-3-----10-10--1-1-----5-5--3-3-----5-5--5---| x3

G:------------------------------|
D:------------------------------|
A:------------------------------|
E:-8-8-----5-5--3-3-----10-10---|

3:04
OUTRO

G:-------------------------------------------------------|
D:-------------------------------------------------------|
A:-------------------------------------------------------|
E:-8-8-----5-5--3-3-----0-0--1-1-----5-5--3-3-----00-0---|

G:-----------------------------------------------------------|
D:-----------------------------------------------------------|
A:-----------------------------------------------------------|
E:-8-8-----5-5--3-3-----0-0--1-1-----5-5--3-3-----00-0-8-8---|

============================================================================
GOOD GOD YOU DID IT! Now Scroll up and do it again!!!

CONTACT:
ronnie_firefly@hotmail.com
Добавлено: 15.07.2012
Другие материалы по этой песне:
  • Аккорды и текст

Страница создана 15.07.2012
http://primanota.ru/goodnight-nurse/simple-chords.htm
Привет, Гость.
Предлагаем пройти революционный курс по гитаре.
Подарок от PrimaNota.Ru, забирай!