PrimaNota.ru - самый крупный в мире бесплатный архив песенных текстов, аккордов, табулатур и нот


Goodnight Nurse - Loner - таба, видео

Регистрация Запомнить меня
Войти через:  Facebook Google Twitter Vk Yandex Mail.ru

Goodnight Nurse - Loner - таба, видео

Печатать
Просмотров: 261
Уроки эстрадного вокала в Санкт-Петербурге
Loner by Goodnight Nurse

Tuning: Standard
Email: shorty_rox_06@hotmail.com
This is my first tab and I'm pretty sure its right but it's probably not. Enjoi!
It goes like this,

Intro:

E|-----------------------|
B|-----------------------| 
G|--999-99-9-9-999-------| 
D|--999-99-9-9-999-------| 
A|--777-77-7-7-777-------|
E|-----------------------| 

E|-----------------------------------------------------------|
B|-----------------------------------------------------------|
G|--999-------------777-------------9999—7777—99999999-------|
D|--999--9/7-7/6----777--9/7-7/6------9999—7777—99999999-----|
A|--777-------------555-------------7777—5555—77777777-------|
E|-----------------------------------------------------------|  x2

E|------------------------|
B|--9-7-5-10-9-7-5--------|
G|------------------------|
D|------------------------|
A|------------------------|
E|------------------------|

I haven't figured out the rest of the song but I'm working on it.
Have fun playing it because I do.
Добавлено: 30.04.2012
Другие материалы по этой песне:
  • Аккорды и текст

Страница создана 09.03.2012
http://primanota.ru/goodnight-nurse/loner-chords.htm
Привет, Гость.
Предлагаем пройти революционный курс по гитаре.
Подарок от PrimaNota.Ru, забирай!