PrimaNota.ru - самый крупный в мире бесплатный архив песенных текстов, аккордов, табулатур и нот


Goodnight Nurse - Going A Way - таба, видео

Регистрация Запомнить меня
Войти через:  Facebook Google Twitter Vk Yandex Mail.ru

Goodnight Nurse - Going A Way - таба, видео

Печатать
Просмотров: 107
Going Away by Goodnight Nurse

----------------------------------------------------------------------------
                   Going Away by Goodnight Nurse
----------------------------------------------------------------------------
Tabbed by: Phil Daly
Email: shorty_rox_06@hotmail.com

Tuning: normal (eadgbe)
Intro:
e|-----------------------------------|
B|-----------------------------------|
G|-----------------------------------|
D|-----------------------------------|
A|------------------------------7-7--|
E|--0-0-4-4-2-2-5-5-4-4-7-7-5-5------| x3

e|--------------------------------------|
B|--------------------------------------|
G|--------------------------------------|
D|--2-2-2-2-6-6-6-6-4-4-4-4-7-7-7-7--2~-|
A|--2-2-2-2-6-6-6-6-4-4-4-4-7-7-7-7--2~-|
E|--0-0-0-0-4-4-4-4-2-2-2-2-5-5-5-5--0~-|
Pm  . . . . . . . . . . . . . . . .
Verse: Singing for a while...
e|-------|
B|-------|
G|-------|
D|--7-7--|
A|--7-7--|
E|--5-5--|

Verse: (Palm Mute)
e|--------------------------------------------------------------------|
B|--------------------------------------------------------------------|
G|--------------------------------------------------------------------|
D|--2-2-2-2-6-6-6-6-4-4-4-4-7-7-7-7--2-2-2-2-6-6-6-6-4-4-4-4-7-7-7-7--|
A|--2-2-2-2-6-6-6-6-4-4-4-4-7-7-7-7--2-2-2-2-6-6-6-6-4-4-4-4-7-7-7-7--|
E|--0-0-0-0-4-4-4-4-2-2-2-2-5-5-5-5--0-0-0-0-4-4-4-4-2-2-2-2-5-5-5-5--| x2
Pm  . . . . . . . . . . . . . . . .  . . . . . . . . . . . . . . . .

Pre chorus: 2 guitars play this but i made it for 1 guitar
e|--------------------------------------------------------------------|
B|--------------------------------------------------------------------|
G|--------------------------------------------------------------------|
D|--2-2-9-9-6-6-9-9-4-4-9-9-7-7-9-9--2-2-9-9-6-6-9-9-4-4-9-9-7-7-9-9--|
A|--2-2-9-9-6-6-9-9-4-4-9-9-7-7-9-9--2-2-9-9-6-6-9-9-4-4-9-9-7-7-9-9--|
E|--0-0-7-7-4-4-7-7-2-2-7-7-5-5-7-7--0-0-7-7-4-4-7-7-2-2-7-7-5-5-7-7--| x3
Pm  . .     . .     . .     . .      . .     . .     . .     . . 

e|--------------------------------------------------------------------|
B|--------------------------------------------------------------------|
G|--------------------------------------------------------------------|
D|--2-2-9-9-6-6-9-9-4-4-4-4-7-7-9-9--2-2-2-2-6-6-6-6-4-4-4-4-7-7-7-7--|
A|--2-2-9-9-6-6-9-9-4-4-4-4-7-7-9-9--2-2-2-2-6-6-6-6-4-4-4-4-7-7-7-7--|
E|--0-0-7-7-4-4-7-7-2-2-7-7-5-5-7-7--0-0-0-0-4-4-4-4-2-2-2-2-5-5-5-5--|
Pm  . .     . .     . .     . .      . . . . . . . . . . . . . . . .
Chorus: Strum down
e|--------------------------------------|
B|--------------------------------------|
G|--------------------------------------|
D|--2-2-2-2--6-6-6-6--7-7-7-7--4-4-6-6--|
A|--2-2-2-2--6-6-6-6--7-7-7-7--4-4-6-6--|
E|--0-0-0-0--4-4-4-4--5-5-5-5--2-2-4-4--| x4

e|-----------------------------------|
B|-----------------------------------|
G|-----------------------------------|
D|-----------------------------------|
A|------------------------------7-7--|
E|--0-0-4-4-2-2-5-5-4-4-7-7-5-5------| x3

e|--------------------------------------|
B|--------------------------------------|
G|--------------------------------------|
D|--2-2-2-2-6-6-6-6-4-4-4-4-7-7-7-7--2~-|
A|--2-2-2-2-6-6-6-6-4-4-4-4-7-7-7-7--2~-|
E|--0-0-0-0-4-4-4-4-2-2-2-2-5-5-5-5--0~-|
Pm  . . . . . . . . . . . . . . . .

Verse
Pre Chorus
Chorus

Bridge: 2 guitars
Rythym:
e|---------------------------------------|
B|---------------------------------------|
G|---------------------------------------|
D|--2-2-2-2-6-6-6-6-7-7-7-7-7-7-7-7--2~--|
A|--2-2-2-2-6-6-6-6-7-7-7-7-7-7-7-7--2~--|
E|--0-0-0-0-4-4-4-4-5-5-5-5-5-5-5-5--0~--|

Lead:
e|--0--0--1--1--3--3--4--3----0--1--1--3--3--4--3----|
B|---1--1--1--1--1--1--1--1----1--1--1--1--1--1--1---|
G|---------------------------------------------------|
D|---------------------------------------------------|
A|---------------------------------------------------|
E|---------------------------------------------------|

Rythym:
e|---------------------------------------|
B|---------------------------------------|
G|---------------------------------------|
D|--2-2-2-2-6-6-6-6-7-7-7-7-7-7-7-7--2~--|
A|--2-2-2-2-6-6-6-6-7-7-7-7-7-7-7-7--2~--|
E|--0-0-0-0-4-4-4-4-5-5-5-5-5-5-5-5--0~--|

Lead:
e|--0--0--1--1--3--3--4--3----0--1--1--3--3--4--3----|
B|---1--1--1--1--1--1--1--1----1--1--1--1--1--1--1---|
G|---------------------------------------------------|
D|---------------------------------------------------|
A|---------------------------------------------------|
E|---------------------------------------------------|

3rd Verse:
e|------------------|
B|------------------|
G|------------------|
D|--7~--6~--4~--2~--|
A|--7~--6~--4~--2~--|
E|--5~--4~--2~--0~--|

e|---------------------------|
B|---------------------------|
G|---------------------------|
D|--7~--6~--2-2-2-2-2-2-2-2--|
A|--7~--6~--2-2-2-2-2-2-2-2--|
E|--5~--4~--0-0-0-0-0-0-0-0--|

Chorus

Outro:
e|-----------------------------------|
B|-----------------------------------|
G|-----------------------------------|
D|-----------------------------------|
A|------------------------------7-7--|
E|--0-0-4-4-2-2-5-5-4-4-7-7-5-5------| x4

e|-----------------|
B|-----------------|
G|-----------------|
D|--2--2--2----2~--|
A|--2--2--2----2~--|
E|--0--0--0----0~--|


| /  slide up
| \  slide down
| h  hammer-on
| p  pull-off
| ~  vibrato
| +  harmonic
| x  Mute note
============================================================================
Добавлено: 05.04.2012
Другие материалы по этой песне:

Страница создана 05.04.2012
http://primanota.ru/goodnight-nurse/going-a-way-chords.htm
Привет, Гость.
Предлагаем пройти революционный курс по гитаре.
Подарок от PrimaNota.Ru, забирай!