PrimaNota.ru - самый крупный в мире бесплатный архив песенных текстов, аккордов, табулатур и нот


Goodnight Nurse - Death Goes To Disco - текст песни, таба, видео

Регистрация Запомнить меня
Войти через:  Facebook Google Twitter Vk Yandex Mail.ru

Goodnight Nurse - Death Goes To Disco - текст песни, таба, видео

Печатать
Просмотров: 144
Уроки эстрадного вокала в Санкт-Петербурге
Band: Goodnight Nurse
Song: Death Goes To Disco
Album: Always And Never

Hope you enjoy this! First none power tab for this song on here!

Played in Drop C# [C#,G#,C#,F#,A#,D#]

Intro 0:00-0:10
|--------|
|--------|
|--------|
|-7-7-7-7| Play this for 10 seconds.
|-5-5-5-5|
|--------|
pm . . . .

Main Riff 0:11-0:21
|-----14p10-15p10-------15p10----|------14p10-15p10----------------------|
|-----------------------------10-|---------------------------------------|
|--------------------------------|---------------------------------------|
|0-0---------------0-0-----------|-0-0---------------7p5p4-0-4p5p7p5-----|
|0-0---------------0-0-----------|-0-0---------------7p5p4-0-4p5p7p5-----|
|0-0---------------0-0-----------|-0-0---------------7p5p4-0-4p5p7p5-----|

|-----14p10-15p10-------15p10----|------14-15~~|
|-----------------------------10-|-------------|
|--------------------------------|-------------|
|5-5---------------5-5-----------|-5-5---------|
|5-5---------------5-5-----------|-5-5---------|
|5-5---------------5-5-----------|-5-5---------|

Verse 0:22-0:33
|----------------------------------------|
|----------------------------------------|
|----------------------------------------|
|-7-7--7-7--7-7--7-7---------------------|
|-5-5--5-5--5-5--5-5--7-7--9-9--7-7--9-9-|
|---------------------7-7--9-9--7-7--9-9-|

Intro 0:34-0:44
|--------|
|--------|
|--------|
|-7-7-7-7|
|-5-5-5-5|
|--------|
pm . . . .

Prechorus 0:44-0:46
|-----------------|
|-----------------|
|-----------------|
|-----------------|
|-4-5-4-5-4-5-4-5-|
|-----------------|

Chorus 0:47-0:55
|-----14p10-15p10-------15p10----|------14p10-15p10----------------------|
|-----------------------------10-|---------------------------------------|
|--------------------------------|---------------------------------------|
|0-0---------------0-0-----------|-0-0---------------7p5p4-0-4p5p7p5-----|
|0-0---------------0-0-----------|-0-0---------------7p5p4-0-4p5p7p5-----|
|0-0---------------0-0-----------|-0-0---------------7p5p4-0-4p5p7p5-----|

|-----14p10-15p10-------15p10----|------14-15~~|
|-----------------------------10-|-------------|
|--------------------------------|-------------|
|5-5---------------5-5-----------|-5-5---------|
|5-5---------------5-5-----------|-5-5---------|
|5-5---------------5-5-----------|-5-5---------|

Verse 0:56-1:17
|----------------------------------------|
|----------------------------------------|
|----------------------------------------|
|-7-7--7-7--7-7--7-7---------------------| x2
|-5-5--5-5--5-5--5-5--7-7--9-9--7-7--9-9-|
|---------------------7-7--9-9--7-7--9-9-|

Intro 1:18-1:29
|--------|
|--------|
|--------|
|-7-7-7-7|
|-5-5-5-5|
|--------|
pm . . . .

Prechorus 1:30-1:32
|-----------------|
|-----------------|
|-----------------|
|-----------------|
|-4-5-4-5-4-5-4-5-|
|-----------------|

Chorus 1:31-1:51
|-----14p10-15p10-------15p10----|------14p10-15p10----------------------|
|-----------------------------10-|---------------------------------------|
|--------------------------------|---------------------------------------|
|0-0---------------0-0-----------|-0-0---------------7p5p4-0-4p5p7p5-----|
|0-0---------------0-0-----------|-0-0---------------7p5p4-0-4p5p7p5-----|
|0-0---------------0-0-----------|-0-0---------------7p5p4-0-4p5p7p5-----|

|-----14p10-15p10-------15p10----|------14-15~~|
|-----------------------------10-|-------------|
|--------------------------------|-------------|
|5-5---------------5-5-----------|-5-5---------|
|5-5---------------5-5-----------|-5-5---------|
|5-5---------------5-5-----------|-5-5---------|

Interlude 1:52-2:13
|------------|
|------------|
|------------|
|-7--7--7--7-|
|-5--5--5--5-|
|------------|
pm .  .  .  .

Leave a 5 second gap here.

Chorus x4 2:18-3:01
|-----14p10-15p10-------15p10----|------14p10-15p10----------------------|
|-----------------------------10-|---------------------------------------|
|--------------------------------|---------------------------------------|
|0-0---------------0-0-----------|-0-0---------------7p5p4-0-4p5p7p5-----|
|0-0---------------0-0-----------|-0-0---------------7p5p4-0-4p5p7p5-----|
|0-0---------------0-0-----------|-0-0---------------7p5p4-0-4p5p7p5-----|

|-----14p10-15p10-------15p10----|------14-15~~|
|-----------------------------10-|-------------|
|--------------------------------|-------------|
|5-5---------------5-5-----------|-5-5---------|
|5-5---------------5-5-----------|-5-5---------|
|5-5---------------5-5-----------|-5-5---------|

Outro 3:01
|------------------------|
|------------------------|
|------------------------|
|------------------------|
|-4-5-4-5-4-5-4-5-4-5-4-5|
|------------------------|

Let the guitar ring completely & then you can play the piano part clean.
|-13-12---------13-12---------13-12---------15-13-12-11-|
|-------10-11---------10-13---------10-11------------11-|
|-------------------------------------------------------|
|-------------------------------------------------------|
|-------------------------------------------------------|
|-------------------------------------------------------|

|-13-12---------13-12---------13-12---------15-13-12~~~~|
|-------10-11---------10-13---------10-11---------------|
|-------------------------------------------------------|
|-------------------------------------------------------|
|-------------------------------------------------------|
|-------------------------------------------------------|

Hope you enjoy playing this song. It's a great song, probably their best.
Добавлено: 06.06.2012
Другие материалы по этой песне:

Страница создана 06.06.2012
http://primanota.ru/goodnight-nurse/death-goes-to-disco-chords.htm
Привет, Гость.
Предлагаем пройти революционный курс по гитаре.
Подарок от PrimaNota.Ru, забирай!