PrimaNota.ru - самый крупный в мире бесплатный архив песенных текстов, аккордов, табулатур и нот


Goodnight Nurse - All Hail The Serpent Queen - таба, видео

Регистрация Запомнить меня
Войти через:  Facebook Google Twitter Vk Yandex Mail.ru

Goodnight Nurse - All Hail The Serpent Queen - таба, видео

Печатать
Просмотров: 141
All hail the serpent Queen

Goodnight Nurse

Intro
e|--------------------------------------------------|
b|--------------------------------------------------|
g|------10-9-------10-9--------10-9-----------------|
d|-0-0--10-9--8-8--10-9--10-10-10-9--10-10-x-12-12--| x 2 Second time play 
a|-0-0--8--7--8-8--8--7--10-10-8--7--10-10-x-12-12--| the first two chords 
D|-0-0--------8-8--------10-10-------10-10-x-12-12--| an octave (12 frets) higher

Verse 1
e|-------------------------------|
b|-------------------------------|
g|-------------------------------|
d|-3-0--0-0--3-0--0-0------------| x 2
a|-3-0--0-0--3-0--0-0------------|
D|-3-0--0-0--3-0--0-0------------|

Pre chorus part 1
e|----------------------------------------------------------------------|
b|----------------------------------------------------------------------|
g|-----------------------9--9---9--9-------10-10--9--9---9--9---9--9----|
d|-10\-10-10--10-10-(x4)-10-10--10-10-(x2)-10-10--10-10--10-10--10-10---|
a|-10\------------------------------------------------------------------|
D|-10\------------------------------------------------------------------|

Pre chorus part 2
e|-------------------------------|
b|-------------------------------|
g|-------------------------------|
d|-2-2-2-2-----------------------|
a|-2-2-2-2-(xlots)---------------|
D|-2-2-2-2-----------------------|
   * * * * just take off the palm mute when you think it sounds right

Chorus
e|-------------1-1----1----5-5----5----3-3----3------|
b|-5-5-3--5-3------3----3------3----3------3----3----|
g|---------------------------------------------------|
d|---------------------------------------------------| x 2
a|---------------------------------------------------|
D|---------------------------------------------------|

Post Chorus 1
e|--------------------------------------------------|
b|--------------------------------------------------|
g|-------10-9------10-9--------10-9-----------------|
d|-12-12-10-9--8-8-10-9--10-10-10-9--10-10-x-12-12--| x 2 
a|-12-12-8--7--8-8-8--7--10-10-8--7--10-10-x-12-12--|
D|-12-12-------8-8-------10-10-------10-10-x-12-12--|

Verse 1
e|-------------------------------|
b|-------------------------------|
g|------<12>---------------------|
d|-<12>------3-0--0-0--3-0--0-0--| x 2
a|-----------3-0--0-0--3-0--0-0--|
D|-----------3-0--0-0--3-0--0-0--|

Pre chorus part 1
e|----------------------------------------------------------------------|
b|----------------------------------------------------------------------|
g|-----------------------9--9---9--9-------10-10--9--9---9--9---9--9----|
d|-10\-10-10--10-10-(x4)-10-10--10-10-(x2)-10-10--10-10--10-10--10-10---|
a|-10\------------------------------------------------------------------|
D|-10\------------------------------------------------------------------|

Pre chorus part 2
e|-------------------------------|
b|-------------------------------|
g|-------------------------------|
d|-2-2-2-2-----------------------|
a|-2-2-2-2-(xlots)---------------|
D|-2-2-2-2-----------------------|
   * * * * just take off the palm mute when you think it sounds right

Chorus
e|-------------1-1----1----5-5----5----3-3----3------|
b|-5-5-3--5-3------3----3------3----3------3----3----|
g|---------------------------------------------------|
d|---------------------------------------------------| x 2
a|---------------------------------------------------|
D|---------------------------------------------------|

Post Chorus 2
e|---------------------------------------------------|
b|---------------------------------------------------|
g|---------------------------------------------------|
d|-12--12-12-12-12-12-12-12-12-----------------------| x 2
a|-12--12-12-12-12-12-12-12-12-----------------------|
D|-12--12-12-12-12-12-12-12-12-----------------------|
       *  *  *  *  *  *  *

Pre Solo
e|----------|
b|----------|
g|----------|
d|-12-10----|
a|-12-10----|
D|-12-10----|

Solo
e|-------------------------------------------------------------------------|
b|-----------------13------------------------------------------------------|
g|-12b(14)-12b(14)____(14)r12---14----------------12-----------------------|
d|---------------------------------12-14-12-14-15----15~-------------7-8-10|
a|---------------------------------------------------------8--7-8-10-------|
D|-------------------------------------------------------------------------|

e|------------------10p0-12p0-13p0-15p0-17p0-12p0-13p0-15p0-17p0-18p0-20p0-|
b|--------11-10-8~---------------------------------------------------------|
g|-7-9-10------------------------------------------------------------------|
d|-------------------------------------------------------------------------|
a|-------------------------------------------------------------------------|
D|-------------------------------------------------------------------------|

e|-22p0-20p0-18p0-17~----13~---12-13-12-10~-----10-------------------------|
b|-------------------------------------------13----13-10~--10-11-10--------|
g|------------------------------------------------------------------10~----|
d|-------------------------------------------------------------------------|
a|-------------------------------------------------------------------------|
D|-------------------------------------------------------------------------|

Post Solo
e|-------------------------------------------------------------------------|
b|-------------------------------------------------------------------------|
g|-10-----10----10----10--12-----12----12----12--14----(14---)------14-----|
d|-----12----12----12---------12----12----12---------12(---12)x5-----------|
a|-------------------------------------------------------------------------|
D|-------------------------------------------------------------------------|

Final Chorus
e|-------------1-1----1----5-5----5----3-3----3------|
b|-----------------3----3------3----3------3----3----|
g|---------------------------------------------------|
d|---------------------------------------------------|
a|---------------------------------------------------|
D|---------------------------------------------------|

e|-------------1-1----1----5-5----5----3-3----3------|
b|-5-5-3--5-3------3----3------3----3------3----3----|
g|---------------------------------------------------|
d|---------------------------------------------------| x 3
a|---------------------------------------------------|
D|---------------------------------------------------|

Outro
e|---------5--3--1-0-1-0-----------------------------|
b|-----------------------1-3-------------------------|
g|-------------------------2-------------------------|
d|-0~----------------------0-------------------------|
a|-0~----------------------0-------------------------|
D|-0~----------------------0-------------------------|
Let this chord ring
as you play the lead


Добавлено: 19.04.2012
Другие материалы по этой песне:
  • Аккорды и текст

Страница создана 19.04.2012
http://primanota.ru/goodnight-nurse/all-hail-the-serpent-queen-chords.htm
Привет, Гость.
Предлагаем пройти революционный курс по гитаре.
Подарок от PrimaNota.Ru, забирай!