PrimaNota.ru - самый крупный в мире бесплатный архив песенных текстов, аккордов, табулатур и нот


Good Shoes - Sofia - бас-таба, видео

Регистрация Запомнить меня
Войти через:  Facebook Google Twitter Vk Yandex Mail.ru

Good Shoes - Sofia - бас-таба, видео

Печатать
Просмотров: 129
Уроки эстрадного вокала в Санкт-Петербурге
----------------------------------------------------------------------------
			     Sofia – Good Shoes
----------------------------------------------------------------------------

Tabbed By: R2 Ben2
E-mail: retwaq47@gmail.com

Tuning: STANDARD

My First tab! Great song by a great band:


Intro

G|-9-8-------------13-13-13-----8----6-------1/9---9-8-------------13-13-13-|
D|-----11-9—-9/11------------6----4-----2-2------------11-9—-9/11-----------|
A|--------------------------------------------------------------------------|
E|--------------------------------------------------------------------------|

-------8----6--------------1-4----------------1-4----|
-----6----4----2--2-2-2-2-------2------2-2-2---------|
----------------------------------2--4---------------|
-----------------------------------------------------|


Verse

G|-9-8-------------13-13-13-----8----6-------1/9---9-8-------------13-13-13-|
D|-----11-9—-9/11------------6----4-----2-2------------11-9—-9/11-----------|
A|--------------------------------------------------------------------------|
E|--------------------------------------------------------------------------|

-------8----6--------------1-4----------------1-4----|
-----6----4----2--2-2-2-2-------2------2-2-2---------|
----------------------------------2--4---------------|
-----------------------------------------------------|


Chorus

G|-------9----13-11-11--13-11-11--13-11-11--13-11-11--13-11-13--------------|
D|-11-----------------------------------------------------------11--14--11--|
A|--------------------------------------------------------------------------|
E|--------------------------------------------------------------------------|

---------------------------------------------9----13-11-11--13-11-11--13-11-|
14-11--14--11-14--9--9-9--6--4-6-4-6--/11-----------------------------------|
----------------------------------------------------------------------------|
----------------------------------------------------------------------------|

11-13-11-11--13-11-13-------------------------------------------------------|
-----------------------11--14--11-14-11--14--11-14--9--9-9--6-6-4-4-2—-2-2--|
----------------------------------------------------------------------------|
----------------------------------------------------------------------------|

----1-4--------------1-4----|          ----1-4--------------------------|
2-2------2--2-2-2-2---------|          2-2------2--2-2-2-2/6--6/9-------|
----------------------------|          ---------------------------------|
----------------------------|before solo: ------------------------------|


Solo

G|----9-11-9---------9-11--9------13-16-13--------13-16--13---|
D|-11---------11--11-----------14----------14--14-------------|
A|------------------------------------------------------------|
E|------------------------------------------------------------|X3

On fourth:
G|----9-11-9---------9-11--9-----------------------------------1-4----------|
D|-11---------11--11-----------9--9-9--6-6-4-4-2—-2-----2-2-2-------2-----2-|
A|--------------------------------------------------2-4---------------2-4---|
E|--------------------------------------------------------------------------|

-----1-4----|
2-2---------|
------------|
------------|


Final Chorus

G|-------9----13-11-11--13-11-11--13-11-11--13-11-11--13-11-13--------------|
D|-11-------------------------------------------------------------11-14--11-|
A|--------------------------------------------------------------------------|
E|--------------------------------------------------------------------------|

---------------------------------------------9----13-11-11--13-11-11--13-11-|
14-11--14--11-14--9--9-9--6--4-6-4-6--/11-----------------------------------|
----------------------------------------------------------------------------|
----------------------------------------------------------------------------|

11-13-11-11--13-11-13-------------------------------------------------------|
-----------------------11--14--11-14-11--14--11-14--9--9-9--6-6-4-4--2------|
-----------------------------------------------------------------------2-4--|
----------------------------------------------------------------------------|

------1-4---------------1-4-----------------1-4---------------1-4/9--|
2-2-2-------2-----2-2-2-----—-2-------2-2-2-------2-----2-2-2--------|
--------------2-4-----------------2-4---------------2-4--------------|
---------------------------------------------------------------------|

ORDER:

Intro
Verse X2
Chorus
Verse
Chorus
Solo
Final Chorus

| /  slide up
| \  slide down
| h  hammer-on
| p  pull-off
| ~  vibrato
| +  harmonic
| x  Mute note
============================================================================
Добавлено: 05.05.2012
Другие материалы по этой песне:
  • Аккорды и текст

Страница создана 05.05.2012
http://primanota.ru/good-shoes/sofia-chords.htm
Привет, Гость.
Предлагаем пройти революционный курс по гитаре.
Подарок от PrimaNota.Ru, забирай!