PrimaNota.ru - самый крупный в мире бесплатный архив песенных текстов, аккордов, табулатур и нот


Good Shoes - Nazanin - таба, видео

Регистрация Запомнить меня
Войти через:  Facebook Google Twitter Vk Yandex Mail.ru

Good Shoes - Nazanin - таба, видео

Печатать
Просмотров: 92

Cowbell starts off the beat

Guitar 1 (Rhys, set to "Rhythm")

notes in brackets e.g. (0) are added later


E|-------------------------------------------------------------|
B|-------------------------------------------------------------|
G|-------------------------------------------------------------|
D|-------------------------------------------------------------|
A|--12----------------12-12-12-12-11-9--12---------------------|
E|-------------------------------------------------------------|

E|---------------------------------------------------------------|
B|---------------------------------------------------------------|
G|---------------------------------------------------------------|
D|-------------------------11-11-11-9----9-------------(0)-------|
A|------12-12-12-12-11-9-------------12---12--12-9----(0)--------|let ring
E|--------------------------------------------------(12)---------|

Then...
Guitar 2 (Steve, set to treble)

E|------------------------------------------------------------|
B|------------------------------------------------------------|
G|----7-9-11-9-7-9--------------------------------------------|
D|------------------------------------------------------------|
A|------------------------------------------------------------|
E|------------------------------------------------------------|

theres some chords later on, It starts off as A then Bm, then D then Em

the rest of the song is built off the scales used in the intro, whatever they are.

Questions and answers is their best song by a long way, download it off iTunes if you 
heard it, its on the All in my head single
Добавлено: 29.06.2012
Другие материалы по этой песне:

Страница создана 29.04.2012
http://primanota.ru/good-shoes/nazanin-chords.htm
Привет, Гость.
Предлагаем пройти революционный курс по гитаре.
Подарок от PrimaNota.Ru, забирай!