PrimaNota.ru - самый крупный в мире бесплатный архив песенных текстов, аккордов, табулатур и нот


Good Shoes - Mordern - таба, видео

Регистрация Запомнить меня
Войти через:  Facebook Google Twitter Vk Yandex Mail.ru

Good Shoes - Mordern - таба, видео

Печатать
Просмотров: 97
Уроки эстрадного вокала в Санкт-Петербурге
intro just play this
e----
b-12-
g-12-
d-12-
a----
e----

chords are the same throughout the song just rythm changes
e-9--7-5-|
b-8--9-7-|
g-9--9-7-|
d-11-9-7-|
a-9--7-5-|
e--------|


solo

e-14-12-14--12---------12-11-12-----------|
b---------14--12-14-10---------11-12-8-9--|
g---------------------------------------9-|
d-----------------------------------------|
a-----------------------------------------|
e-----------------------------------------|

e-12-1010-1010-------------------|
b-------------10------77-77-9-10-|
g----------------5-7--77-77------|
d-------------------5------------|
a--------------------------------|
e--------------------------------|

e-10-9-9--7------------------------|
b-------10--9-10-7-10-8-9----------|
g------------------------8-9-------|
d---------------------------8-9----|
a-------------------------------10-|
e----------------------------------|

e---------------------------------|
b---------------9-9/7-7-9-10------|
g-9-9/7-7--------------------7/9--|
d--------9-9/7-7-------------9/11-|
a---------------------------------|
e---------------------------------|

e-----------------------10-9-----12-|
b-------10-12-7/9--9-12------10--10-|
g-----9-----------9----------11--11-|
d-9/11------------------------------|
a-----------------------------------|
e-----------------------------------|

e-14---14-16-16--16-17-19-17---19-|
b--14---------17-----------19-----|
g---14---------16-----------19----|
d---------------------------------|
a---------------------------------|
e---------------------------------|

enjoy :)
Добавлено: 08.03.2012
Другие материалы по этой песне:
  • Аккорды и текст

Страница создана 08.03.2012
http://primanota.ru/good-shoes/mordern-chords.htm
Привет, Гость.
Предлагаем пройти революционный курс по гитаре.
Подарок от PrimaNota.Ru, забирай!