PrimaNota.ru - самый крупный в мире бесплатный архив песенных текстов, аккордов, табулатур и нот


Good Shive Low - Crazy - бас-таба, видео

Регистрация Запомнить меня
Войти через:  Facebook Google Twitter Vk Yandex Mail.ru

Good Shive Low - Crazy - бас-таба, видео

Печатать
Просмотров: 66
I know not a lot of people know this band, but this is for the GSL fans in the 
Dallas Texas area. Hope you enjoy and comment on it!


Legend:
. :Staccato
\ :Slide down
/ :Slide up
v :Vibrato
h :Hammer-on
p :Pull-off
~ :Sustain


Intro 1
G|--------------------|
D|----------00000230--|
A|--00000230----------|
E|--------------------|

Intro 2 into Verse
G|--------------------------------------------------------------------------|
D|---------------------------------------------10v--------------------------|
A|--------------------------------------------------------------------------|
E|--55443344(x4)-55443344(x2)-554433445\0-----------55443344(x3)-5/0--------|
                 ........     ........

Chorus
G|-----------------------------------------------------------------------|
D|-----------------------------------------------------------------------|
A|--7-7-7-7-7-7-7-7-5-5-5-5-5-5-5-5/7-7-7-7-7-7-7-7-5\0------------------|
E|-------------------------------------------------------22\-------------|
    . . . . . . . . . . . . . . . . . . . . . . . .

Bridge
G|-----------------------------------------|
D|--3-35-6~53---------\--------------------|
A|---3-------3-2h3p20~-}(x2)-------3300----|
E|--------------------/--------3333--------|

Outro
G|-----------------------------------------|
D|-----------------------------------------|
A|-----------------------------------------|
E|--55443344554433445544334455443344/5~----|


Riff Order:
Intro 1
Intro 2 into Verse
Chorus
Intro 2 into Verse
Bridge
Chorus
Outro
Добавлено: 07.06.2013
Другие материалы по этой песне:
  • Аккорды и текст

Страница создана 07.06.2013
http://primanota.ru/good-shive-low/crazy-chords.htm
Привет, Гость.
Предлагаем пройти революционный курс по гитаре.
Подарок от PrimaNota.Ru, забирай!