PrimaNota.ru - самый крупный в мире бесплатный архив песенных текстов, аккордов, табулатур и нот


Good Riddance - United Cigar - таба, видео

Регистрация Запомнить меня
Войти через:  Facebook Google Twitter Vk Yandex Mail.ru

Good Riddance - United Cigar - таба, видео

Печатать
Просмотров: 82
Song: United Cigar
Band: Good Riddance
Album: For God And Country (1995)
Tabbed by: Unbroken (unbroken@liveunderground.de)

Tuning: Standard
Comments: Please listen to the CD for correct timing
Completeness: 100%

INTRO

e|------------------------------------------------------------|
B|---------------7-6------------------------------------------|
G|-6-6---6-6-~~~-----6----------------------------------------|
D|-6---6---6-~~~----------------------------------------------|
A|-4-------x-~~~----------------------------------------------|
E|------------------------------------------------------------|

INTERLUDE 1

e|------------------------------------------------------------|
B|------------------------------------------------------------|
G|-6-5-3----6-5-3---------------------------------------------|
D|-6-6-3-6--6-6-3-6-4~4~4~4-----------------------------------|
A|-4-3-1-6--4-3-1-6-4~4~4~4-----------------------------------|
E|-------4--------4-2~2~2~2-----------------------------------|

BRIDGE

e|------------------------------------------------------------|
B|-7-*-*-*-*-*------------------------------------------------|
G|-6-*-*-*-*-*------------------------------------------------|
D|-4-*-*-*-*-*------------------------------------------------|
A|------------------------------------------------------------|
E|------------------------------------------------------------|

VERSE

e|------------------------------------------------------------|
B|------------------------------------------------------------|
G|-6------------6---------------------------------------------|
D|-6-3-4-6-*...-6-3-(b)-4-6-----------------------------------|
A|-4-3-4-6-*...-4-3-----4-6-----------------------------------|
E|---1-2-4-*...---1-----2-4-----------------------------------|

REFRAIN

e|------------------------------------------------------------|
B|------------------------------------------------------------|
G|-----6------------------------------------------------------|
D|-8-4-6-6--(2x)----------------------------------------------|
A|-8-4-4-6----------------------------------------------------|
E|-6-2---4----------------------------------------------------|

INTERLUDE 2

e|------------------------------------------------------------|
B|------------------------------------------------------------|
G|--------------------------6---------------------------------|
D|-8-x-6-x-4-x-6-x--(4x)--8-6-4-6--(2x)-----------------------|
A|-8-x-6-x-4-x-6-x--------8-4-4-6-----------------------------|
E|-6-x-4-x-2-x-4-x--------6---2-4-----------------------------|

OUTRO

e|------------------------------------------------------------|
B|-7-*-*-*-*-*------------------------------------------------|
G|-6-*-*-*-*-*-6-~~~------------------------------------------|
D|-4-*-*-*-*-*-6-~~~------------------------------------------|
A|-------------4-~~~------------------------------------------|
E|------------------------------------------------------------|

Order:

INTRO
INTERLUDE 1
BRIDGE 1
VERSE
REFRAIN
VERSE
REFRAIN
INTERLUDE 2
OUTRO

*= Palm mute
~= Let ring
h= Hammer on
p= Pull off
b= Break
.= etc.


...FOR THE LOVE OF PUNKROCK!

HAVE FUN !
AND PLEASE FEEL FREE TO E-MAIL FOR SUGGESTIONS & KUDOS ;-))
Добавлено: 18.03.2012
Другие материалы по этой песне:

Страница создана 18.03.2012
http://primanota.ru/good-riddance/united-cigar-chords.htm
Привет, Гость.
Предлагаем пройти революционный курс по гитаре.
Подарок от PrimaNota.Ru, забирай!