PrimaNota.ru - самый крупный в мире бесплатный архив песенных текстов, аккордов, табулатур и нот


Good Riddance - Steps - текст песни, таба, бас-таба, видео

Регистрация Запомнить меня
Войти через:  Facebook Google Twitter Vk Yandex Mail.ru

Good Riddance - Steps - текст песни, таба, бас-таба, видео

Печатать
Просмотров: 162
---------------------------------------------------------------------------
                           STEPS - Good Riddance
---------------------------------------------------------------------------

Intro:  
e-|----|-----this-part-3x-------------------------------------------------|
B-|----|------------------------------------------------------------------|
G-|----|-1313131313-1111-999---1313131313-1111-999---1313131313-1111-999--|
D-|----|--x-x-x-x-x--x-x-xxx----x-x-x-x-x--x-x-xxx----x-x-x-x-x--x-x-xxx--|
A-|-2/-|-1111111111--9-9-777---1111111111--9-9-777---1111111111--9-9-777--|
E-|----|------------------------------------------------------------------|

e-|------------|
B-|------------|
G-|------------|
D-|--9-999-----|
A-|--9-999-----|
E-|--7-777-3^--|

Verse:
e-|-----------------------------------------------------------------------|
B-|-----------------------------------------------------------------------|
G-|-----------------------------------------------------------------------|
D-|-----------------------------------------------------------------------|
A-|--2~-------------------------------------------------7~----------------|
E-|--0~-------------------------------------------------5~----------------|
     When I beat my head against the wall of convention   the blood I taste     
     I   fought    a    battle     thought    unpopular   for stakes nobody
     My  pain  is  the  pain  of  children  my   heart    is burning with 
     When mother cries all day I ll wipe those tears away you can t 

e-|-------------------------|  e-|--------------------------------|
B-|-------------------------|  B-|--------------------------------|
G-|-------------------------|  G-|--------------------------------|
D-|-------------------------|  D-|--------------------------------|
A-|--9~---------------------|  A-|-----------9--9-9-9-9-9-9-9-9---|
E-|--7~-----------------3^--|  E-|-----------7--7-7-7-7-7-7-7-7---|
       is everyones                seems to see  nobody sees but 
their  shame                     you cant grow up healthy in a house of


e-|--this-part-2x-----------------------------------------------------|
B-|-------------------------------------------------------------------|
G-|--1313131313-1111-999---1313131313-1111-999---1313131313-1111-999--|
D-|---x-x-x-x-x--x-x-xxx----x-x-x-x-x--x-x-xxx----x-x-x-x-x--x-x-xxx--|
A-|--1111111111--9-9-777---1111111111--9-9-777---1111111111--9-9-777--|
E-|-------------------------------------------------------------------|
                        one step forward                      two steps
e-|------------|
B-|------------|
G-|------------|
D-|--9-999-----| 
A-|--9-999-----|
E-|--7-777-3^--|
     back


Repeat verse!


e-|-8x--------8x----------------------8x---------------8x-----|
B-|-----------------------------------------------------------|
G-|-----------------------------------------------------------|
D-|-----------------------------------9-----------------------|
A-|-6---------7-----------------------7----------------9------|
E-|-4---------5----------------------------------------7------|
    For every father holding back the angry fire until five

e-|---------8x-------------8x-----------------8x---------------------|
B-|------------------------------------------------------------------|
G-|------------------------------------------------------------------|
D-|-------------------------------------------9----------------------|
A-|---------6--------------7------------------7----------------------|
E-|---------4--------------5-----------------------------------------|
    When it festers on the drive his boss has shamed him to tears

e-|------------8x----------------------------------------------------|
B-|------------------------------------------------------------------|
G-|------------------------------------------------------------------|
D-|------------------------------------------------------------------|
A-|------------9-----------------------------------------------------|
E-|------------7--------------------------------------3^-------------|
    He should  take it like a man but he never had a man to tell him

Outro:  
e-|------this-part-3x-------------------------------------------------|
B-|-------------------------------------------------------------------|
G-|--1313131313-1111-999---1313131313-1111-999---1313131313-1111-999--|
D-|---x-x-x-x-x--x-x-xxx----x-x-x-x-x--x-x-xxx----x-x-x-x-x--x-x-xxx--|
A-|--1111111111--9-9-777---1111111111--9-9-777---1111111111--9-9-777--|
E-|-------------------------------------------------------------------|

e-|----------------|
B-|----------------|
G-|----------------|
D-|--9-999---------|
A-|--9-999-----2~--|
E-|--7-777-3^--0~--|
Добавлено: 04.06.2012
Другие материалы по этой песне:

Страница создана 27.03.2012
http://primanota.ru/good-riddance/steps-chords.htm
Привет, Гость.
Предлагаем пройти революционный курс по гитаре.
Подарок от PrimaNota.Ru, забирай!