PrimaNota.ru - самый крупный в мире бесплатный архив песенных текстов, аккордов, табулатур и нот


Good Riddance - Self-fufilling Catastrophe - бас-таба, видео

Регистрация Запомнить меня
Войти через:  Facebook Google Twitter Vk Yandex Mail.ru

Good Riddance - Self-fufilling Catastrophe - бас-таба, видео

Печатать
Просмотров: 84
                                                    
-------------------------------------------------------------------------------
	       Sef-Fufulling Catastrophe  - Good Riddance
-------------------------------------------------------------------------------

Tabbed By : Illreceived

Ive tabbed the rhythm the best i could but you will have to listen to the
song to get it right. There are some bass slides i didnt tab (like at the end
of the intro).

Intro :
                                      W                   H        H         
G||-------|-------|-------|-------|--------------------|--------------------|
D||-------|-------|-------|-------|--------------------|--------------------|
A||-------|-------|-------|-------|--/8----------------|--3--------4--------|
E||-------|-------|-------|-------|--------------------|--------------------|


      W                    S  S  S  S  S  S  S  S  S  S  S  S  S  S  S  S  
G||--------------------|--------------------------------------------------|
D||--------------------|--10-10-10-10-10-10-10-10-11-11-11-11-11-11-11-11-|
A||--/8----------------|--------------------------------------------------|
E||--------------------|--------------------------------------------------|

Verse 1:

						[Ending 1,2,3,5]
      S S S S S S S S S S S S S S S S    S S S S S S S S S S S S S S S S    
G||-----------------------------------|-----------------------------------||
D||*----------------------------------|----------------------------------*||
A||*--1-1-1-1-1-1-1-1-1-1-1-1-1-1-1-1-|--0-0-0-0-0-0-0-0-0-0-0-0-0-0-0-0-*||  
E||-----------------------------------|-----------------------------------||

		
	     [Ending 4]
     S S S S S S S S S S S S S S S S    
G||-----------------------------------||
D||----------------------------------*||
A||--0-0-0-0-0-0-0-0-0-0-0-0---------*||  
E||--------------------------3-3-3-3--||


		  [Ending 6]
      S  S  S  S  S  S  S  S  S  S  S  S  S  S S S  
G||------------------------------------------------|
D||------------------------------------------------|
A||--12-12-12-12-12-12-12-12-12-12-12-12-12-10-8-7-| 
E||------------------------------------------------|


Chorus 1:

     S S S S S S S S S S S S S S S S    E  S E  S S S E  S E  S S S  
G||----------------------------------|------------------------------|
D||----------------------------------|------------------------------|
A||--5-5-5-5-5-5-5-5-8-8-8-8-8-8-8-8-|--0--0-0--0-0-0-0--0-0--0-0-0-|
E||----------------------------------|------------------------------|


     S S S S S S S S S S S S S S S S     E   S  E   S  S  S  E   S  E   S  S  S  
G||----------------------------------|------------------------------------------|
D||----------------------------------|------------------------------------------|
A||--5-5-5-5-5-5-5-5-8-8-8-8-8-8-8-8-|--12--12-12--12-12-12-12--12-12--12-12-12-|
E||----------------------------------|------------------------------------------|


Verse 2:

     S S S S S S S S S S S S S S S S    S S S S S S S S S S S S S S S S  
G||----------------------------------|----------------------------------|
D||----------------------------------|----------------------------------|
A||--1-1-1-1-1-1-1-1-1-1-1-1-1-1-1-1-|--0-0-0-0-0-0-0-0-0-0-0-0-0-0-0-0-|
E||----------------------------------|----------------------------------|


     S S S S S S S S S S S S S S S S  
G||----------------------------------|
D||----------------------------------|
A||--1-1-1-1-1-1-1-1-1-1-1-1-1-1-1-1-|
E||----------------------------------|


      S  S  S  S  S  S  S  S  S  S  S  S  S  S S S  
G||------------------------------------------------|
D||------------------------------------------------|
A||--12-12-12-12-12-12-12-12-12-12-12-12-12-10-8-7-|
E||------------------------------------------------|


Chorus 2:

				      		[Ending 1,3]
      S S S S S S S S S S S S S S S S    E  S E  S S S E  S E  S S S    
G||-----------------------------------|-------------------------------||
D||*----------------------------------|------------------------------*||
A||*--5-5-5-5-5-5-5-5-8-8-8-8-8-8-8-8-|--0--0-0--0-0-0-0--0-0--0-0-0-*|| 
E||-----------------------------------|-------------------------------||

		  [Ending 2]
      E   S  E   S  S  S  E   S  E   S  S  S      
G||-------------------------------------------||
D||------------------------------------------*||
A||--12--12-12--12-12-12-12--12-12--12-12-12-*||
E||-------------------------------------------||

	    [Ending 4]
     E  S E  S S S E  S E  S S S  
G||------------------------------|
D||------------------------------|
A||--0--0-0--0-0-0-0--0-0--0-0-0-|
E||------------------------------|

Outro:

      S S S S S S S S S S S S S S S S    S S S S S S S S S S S S S S S S  
G||-----------------------------------|-----------------------------------||
D||*----------------------------------|----------------------------------*||
A||*--5-5-5-5-5-5-5-5-----------------|------------------1-1-1-1-0-0-0-0-*|| 6x
E||-------------------1-1-1-1-1-1-1-1-|--3-3-3-3-3-3-3-3------------------||


     S S S Q      
G||-------------||
D||-------------||
A||--5-5-5-5----||
E||-------------||




Duration Legend
---------------
W - whole
H - half
Q - quarter
E - 8th
S - 16th
T - 32nd
X - 64th
. - note dotted
|-n-|  - n-tuplets


Добавлено: 27.04.2012
Другие материалы по этой песне:
  • Аккорды и текст

Страница создана 27.04.2012
http://primanota.ru/good-riddance/self-fufilling-catastrophe-chords.htm
Привет, Гость.
Предлагаем пройти революционный курс по гитаре.
Подарок от PrimaNota.Ru, забирай!