PrimaNota.ru - самый крупный в мире бесплатный архив песенных текстов, аккордов, табулатур и нот


Good Riddance - Last Believer - текст песни, таба, видео

Регистрация Запомнить меня
Войти через:  Facebook Google Twitter Vk Yandex Mail.ru

Good Riddance - Last Believer - текст песни, таба, видео

Печатать
Просмотров: 91
---------------------------------------------------------------------------
                      Good Riddance ~ Last Believer
---------------------------------------------------------------------------

Tabbed by Koen DP (end_4ever@hotmail.com) 
If you have any comments or questions feel free to contact me...


INTRO
(this part 4 times)
e|-------------------------------------|
B|-------------------------------------|
G|--9999---------------------12121212--|
D|--9999---9999---10101010---12121212--|
A|--7777---9999---10101010---10101010--|
E|---------7777----8-8-8-8-------------|


VERSE 1
(this part 4 times)
e|-------------------------------------|
B|-------------------------------------|
G|--9999---------------------12121212--|
D|--9999---9999---10101010---12121212--|
A|--7777---9999---10101010---10101010--|
E|---------7777----8-8-8-8-------------|
 pm ....   ....    . . . .    . . . .

(then this part 2 times)
e|-------------------------------------------------------------------|
B|-------------------------------------------------------------------|
G|--99999999--------------12121212---99999999--------------12121212--|
D|--99999999---10101010---12121212---99999999---10101010---12121212--|
A|--77777777---10101010---10101010---77777777---10101010---10101010--|
E|--------------8-8-8-8--------------------------8-8-8-8-------------|


CHORUS
(2x)
e|------------------------------------------------------------------------|
B|------------------------------------------------------------------------|
G|-9999------------12121212------------9999------------12121212-----------|
D|-9999--10101010--12121212--12121212--9999--10101010--12121212--12121212-|
A|-7777--10101010--10101010--12121212--7777--10101010--10101010--12121212-|
E|--------8-8-8-8------------10101010---------8-8-8-8------------10101010-|


RIFF (repeat intro)


VERSE 2 (repeat verse 1)


CHORUS


RIFF (2 times)
e|------------------------------------------------------------------|
B|------------------------------------------------------------------|
G|--9999------------12121212--------9999------------12121212--------|
D|--9999--10101010--12121212--9999--9999--10101010--12121212--9999--|
A|--7777--10101010--10101010--9999--7777--10101010--10101010--9999--|
E|---------8-8-8-8------------7777---------8-8-8-8------------7777--|

e|------|
B|------|
G|--9~--|
D|--9~--|
A|--7~--|
E|------|



LAST CHORUS
e|----------------------------------------------------|
B|----------------------------------------------------|
G|-99999---1212121212---1212121212---1111111111-1111--|
D|-xxxxx----x-x-x-x-x----x-x-x-x-x----x-x-x-x-x--x-x--|
A|-77777---1010101010---1010101010----9-9-9-9-9--9-9--|
E|----------------------------------------------------|

e|-----------------------------------------------|
B|-----------------------------------------------|
G|-99999---1212121212---1212121212---1414141414--|
D|-xxxxx----x-x-x-x-x----x-x-x-x-x----x-x-x-x-x--|
A|-77777---1010101010---1010101010---1212121212--|
E|-----------------------------------------------|

e|------------------------------------------------------------------------|
B|------------------------------------------------------------------------|
G|-9999------------12121212------------9999------------12121212-----------|
D|-9999--10101010--12121212--12121212--9999--10101010--12121212--12121212-|
A|-7777--10101010--10101010--12121212--7777--10101010--10101010--12121212-|
E|--------8-8-8-8------------10101010---------8-8-8-8------------10101010-|

e|------|
B|------|
G|--9~--|
D|--9~--|
A|--7~--|
E|------|

============================================================================
Добавлено: 21.06.2012
Другие материалы по этой песне:

Страница создана 15.04.2012
http://primanota.ru/good-riddance/last-believer-chords.htm
Привет, Гость.
Предлагаем пройти революционный курс по гитаре.
Подарок от PrimaNota.Ru, забирай!