PrimaNota.ru - самый крупный в мире бесплатный архив песенных текстов, аккордов, табулатур и нот


Good Riddance - Holding On - текст песни, таба, видео

Регистрация Запомнить меня
Войти через:  Facebook Google Twitter Vk Yandex Mail.ru

Good Riddance - Holding On - текст песни, таба, видео

Печатать
Просмотров: 89
Song: Holding On
Band: Good Riddance
Album: Ballads From The Revolution
Tabbed by: Unbroken (unbroken@liveunderground.de)

Tuning: Standard
Comments: Please listen to the CD for correct timing


INTRO (GUITAR 1)

e|------------------------------------------------------------|
B|------------------------------------------------------------|
G|-9-~~~-9-~~~-~~~-~~~--9-------------------------------------|
D|-9-~~~-9-~~~-~~~-~~~--9-------------------------------------|
A|-7-~~~-7-~~~-~~~-~~~--7-------------------------------------|
E|------------------------------------------------------------|

INTRO (GUITAR 2)

e|------------------------------------------------------------|
B|------------------------------------------------------------|
G|-9--11-12--14--12--11-9--11-12--14--16----------------------|
D|-X--X--X---X---X---X--X--X--X---X---X-----------------------|
A|-7--9--10--12--10--9--7--9--10--12--14----------------------|
E|------------------------------------------------------------|

VERSE

e|------------------------------------------------------------|
B|------------------------------------------------------------|
G|-9--5--4--(3X)--9--5--4--4----------------------------------|
D|-9--5--5--------9--5--5--4----------------------------------|
A|-7--3--2--------7--3--2--2----------------------------------|
E|------------------------------------------------------------|

REFRAIN (GUITAR 1)

e|------------------------------------------------------------|
B|------------------------------------------------------------|
G|----7-----5--(2X)-------------------------------------------|
D|-5--7--2--5-------------------------------------------------|
A|-5--5--2--3-------------------------------------------------|
E|-3----------------------------------------------------------|

REFRAIN (GUITAR 2)

e|------------------------------------------------------------|
B|-----------------------------------------13-----------------|
G|----12--11-9--7--9--12---12--11-9--7--9--X------------------|
D|----X---X--X--X--X--X----X---X--X--X--X--10-----------------|
A|----10--9--7--5--7--10---10--9--7--5--7---------------------|
E|------------------------------------------------------------|

BRIDGE (GUITAR 1)

e|------------------------------------------------------------|
B|------------------------------------------------------------|
G|--9-~~~-----------------------------------------------------|
D|--9-~~~-----------------------------------------------------|
A|--7-~~~-----------------------------------------------------|
E|------------------------------------------------------------|

BRIDGE (GUITAR 2)

e|------------------------------------------------------------|
B|------------------------------------------------------------|
G|-9--11-12--14--16-------------------------------------------|
D|-X--X--X---X---X--------------------------------------------|
A|-7--9--10--12--14-------------------------------------------|
E|------------------------------------------------------------|

INTERLUDE 1 (GUITAR 2)

e|------------------------------------------------------------|
B|------------------------------------------------------------|
G|-------7-------------7--5-----------------------------------|
D|-5--3--7--3----5--3--7--5-----------------------------------|
A|-5--3--5--3----5--3--5--3-----------------------------------|
E|-3--1-----1----3--1-----------------------------------------|

INTERLUDE 1 (GUITAR 2)

e|------------------------------------------------------------|
B|------------------------------------------------------------|
G|-12--14--10-7--10----14--12--14--10-7--12-------------------|
D|-X---X---X--X--X-----X---X---X---X--X--X--------------------|
A|-10--12--8--5--8-----12--10--12--8--5--10-------------------|
E|------------------------------------------------------------|

INTERLUDE 2 (GUITAR 1)

e|------------------------------------------------------------|
B|------------------------------------------------------------|
G|----7-----5--(2X)-------------------------------------------|
D|-5--7--2--5-------------------------------------------------|
A|-5--5--2--3-------------------------------------------------|
E|-3----------------------------------------------------------|

INTERLUDE 2 (GUITAR 2)

e|------------------------------------------------------------|
B|-------------------------------------------13---------------|
G|-12--11-9--7--9--7--9--9--12--11-9--11-12--X----------------|
D|-X---X--X--X--X--X--X--X--X---X--X--X--X---10---------------|
A|-10--9--7--5--7--5--7--5--10--9--7--9--10-------------------|
E|------------------------------------------------------------|

OUTRO

e|------------------------------------------------------------|
B|------------------------------------------------------------|
G|----7-----5-------7-----5--~~~------------------------------|
D|-5--7--2--5----5--7--2--5--~~~--5---------------------------|
A|-5--5--2--3----5--5--2--3--~~~--5---------------------------|
E|-3-------------3----------------3---------------------------|

Order:

INTRO
VERSE
REFRAIN
BRIDGE
VERSE
REFRAIN
INTERLUDE
INTERLUDE 2
OUTRO

*= Palm mute
~= Let ring
h= Hammer on
p= Pull off

HAVE FUN ;-)
Добавлено: 27.05.2012
Другие материалы по этой песне:
  • Аккорды и текст

Страница создана 27.04.2012
http://primanota.ru/good-riddance/holding-on-chords.htm
Привет, Гость.
Предлагаем пройти революционный курс по гитаре.
Подарок от PrimaNota.Ru, забирай!