PrimaNota.ru - самый крупный в мире бесплатный архив песенных текстов, аккордов, табулатур и нот


Good Riddance - Great Leap Forward - текст песни, таба, бас-таба, видео

Регистрация Запомнить меня
Войти через:  Facebook Google Twitter Vk Yandex Mail.ru

Good Riddance - Great Leap Forward - текст песни, таба, бас-таба, видео

Печатать
Просмотров: 131
Авторы музыки: Russ Rankin
Авторы текста: Russ Rankin
Band - Good Riddance
Song - Great Leap Forward
Album - Symptoms Of A Leveling Spirit
Tabbed By: SumFX (Tyler Freear)

Cool Song With Some Good Riffs!

WD = Whammy Dip

Intro
|----------------------|
|----------------------|
|----------------------|
|-2------2--------66---|
|-2------2--------66---|
|-0------0-WD-----44---|

Verse
|--------------------|----------------------|
|--------------------|----------------------|
|--------------------|-----------------888--|
|-222--9\8-----------|-222--9\8--------666--|
|-222--7\6-9--666666-|-222--7\6-9--666------|
|-000------7--444444-|-000------7--444------|

Chorus
Genocide!
|---------------------|----------------------|
|---------------------|----------------------|
|-9989898-------------|-99898989-1313131313--|
|-7767676-1111-9-1111-|-77676767-1111111111--|
|---------1111-9-1111-|----------------------|
|---------9-9--7-9-9--|----------------------|

Bridge
|----------------------------|
|----------------------------|
|----------131313-13/14\13-9-|
|-2--------x-x-x--x--x--x--x-|
|-2--------111111-11/12\11-7-|
|-0--------------------------|

Palm Mute Section
|----------------------|--------------------|
|----------------------|--------------------|
|----------------------|--------------------|
|-----------6666-------|------6666----------|
|-2222-6666-4444-7777--|-4444-4444-66666666-|
|-0000-4444------5555--|-2222------44444444-|
  .... .... .... ....    .... .... ........

Pre Outro
|----------------------|--------------------|
|----------------------|--------------------|
|-----------6666-------|------6666----------|
|-2222-6666-6666-7777--|-4444-6666-66666666-|
|-2222-6666-4444-7777--|-4444-4444-66666666-|
|-0000-4444------5555--|-2222------44444444-|

Pre Outro Lead 1.21
|-------------------------|
|-------------------------|
|-9-88--9--66--9--11--8---|
|-x-xx--x--xx--x--x---x---|
|-7-66--7--44--7--9---6---|
|-------------------------|

Outro
|------------|
|------------|
|------------|
|-222---6-6--|
|-222---6-6--|
|-000---4-4--|

Structure
Intro
Verse
Chorus
Verse
Chorus
Bridge
Palm Mute Section
Pre Outro
Outro

Rate and Comments Please.
Добавлено: 14.07.2012
Другие материалы по этой песне:
  • Аккорды и текст

Страница создана 21.02.2012
http://primanota.ru/good-riddance/great-leap-forward-chords.htm
Привет, Гость.
Предлагаем пройти революционный курс по гитаре.
Подарок от PrimaNota.Ru, забирай!