PrimaNota.ru - самый крупный в мире бесплатный архив песенных текстов, аккордов, табулатур и нот


Good Riddance - Enter The Unapproachables - текст песни, таба, видео

Регистрация Запомнить меня
Войти через:  Facebook Google Twitter Vk Yandex Mail.ru

Good Riddance - Enter The Unapproachables - текст песни, таба, видео

Печатать
Просмотров: 81
Авторы музыки: Luke Pabich
Авторы текста: Russ Rankin
Band - Good Riddance
Song - Enter The Unapproachables
Album - Symptoms Of A Leveling Spirit
Tabbed By: SumFX (Tyler Freear)

For A Song That Lasts Just 1.35 Secs Its Packed With Riffs!
Amazing Lyrics And Guitar Work!

Intro
|--------|---------x2-----------------|
|--------|----------------------------|
|-111111-|---------------------111111-|
|-111111-|-9999999-777-9999999-111111-|
|-9-9-9--|-9999999-777-9999999-9-9-9--|
|--------|-7777777-555-7777777--------|

Intro Solo
|--------------------------|------------------------------|
|--------------------------|-7------7--7--7--7--------10--|
|-9b(11)-9b-9b-9b-9b-9p7-7-|-9b(11)-9b-9b-9b-9b-9p7-9-----|
|--------------------------|------------------------------|
|--------------------------|------------------------------|
|--------------------------|------------------------------|

|-----------------------------------|--------------------|
|-7------7--7--7--7--7--7--7--------|---------7----------|
|-9b(11)-9b-9b-9b-9b-9b-9b-9--9p7---|-9b(11)-----9p7-7-4-|
|---------------------------------9-|--------------------|
|-----------------------------------|--------------------|
|-----------------------------------|--------------------|

Verse
|----------------------------|----------------------------|
|----------------------------|----------------------------|
|---------------------111111-|----------------------------|
|-9999999-777-9999999-111111-|-9999999-777-9999999-9--7---|
|-9999999-777-9999999-9-9-9--|-9999999-777-9999999-9--7---|
|-7777777-555-7777777--------|-7777777-555-7777777-7--5---|

Chorus
|-------x2--------------|
|-----------------------|
|-----------------------|
|-55555-44444-999999999-|
|-55555-44444-999999999-|
|-33333-22222-777777777-|

Chorus Lead
|-------------|----------------------------|
|-------------|----------------------------|
|-9--7--6--7--|-6--14--18--16161616161616--|
|-------------|----------------------------|
|-7--5--4--5--|-4--12--16--14141414141414--|
|-------------|----------------------------|

Bridge
"Like Building A Wall, Hey! Hey! Hey!"
|------------------|
|------------------|
|------------------|
|------------------|
|--555-66666-555---|
|------------------|

Solo
|-------------|-------------------------|--------|
|-------------|-7------7--7-------------|--------|
|-------------|-9b(11)-9b-9b--9b--9-7---|--------|
|-9-----555---|-------------------------|-555----|
|-9-----555---|-------------------------|-555----|
|-7-----333---|-------------------------|-333----|

|--------------------------------------|---------------------------------|
|--------------------------------------|---------------------------------|
|-111111111111-14141414-12121212-12/14-|-111111111111-11/999999-11111111-|
|--------------------------------------|---------------------------------|
|-9-9-9-9-9-9--12121212-10101010-10/12-|-9-9-9-9-9-9--9-/777777-9-9-9-9--|
|--------------------------------------|---------------------------------|

|--------------------------------|
|--------------------------------|
|-16-(x32)---191919\18-14-18-16--|
|--------------------------------|
|-14---------171717\16-12-16-14--|
|--------------------------------|

Post Solo
|-------------------------------------|
|-------------------------------------|
|-11111111----------------------------|
|-9-9-9-9--11--9999999-777-11-9999999-|
|----------11--9999999-777-11-9999999-|
|----------9---7777777-555-9--7777777-|

Outro
|-----x3---------|------------|
|----------------|------------|
|-----------999--|-121212-----|
|-----------999--|-121212--9--|
|-555-66666-777--|-101010--9--|
|----------------|---------7--|

Structure

Intro
Verse
Chorus
Bridge
Verse
Chorus
Solo
Post Solo
Outro

Rate And Comments Please :)
Добавлено: 20.05.2012
Другие материалы по этой песне:
  • Аккорды и текст

Страница создана 20.05.2012
http://primanota.ru/good-riddance/enter-the-unapproachables-chords.htm
Привет, Гость.
Предлагаем пройти революционный курс по гитаре.
Подарок от PrimaNota.Ru, забирай!