PrimaNota.ru - самый крупный в мире бесплатный архив песенных текстов, аккордов, табулатур и нот


Good Riddance - Dry Season - таба, видео

Регистрация Запомнить меня
Войти через:  Facebook Google Twitter Vk Yandex Mail.ru

Good Riddance - Dry Season - таба, видео

Печатать
Просмотров: 73
Уроки эстрадного вокала в Санкт-Петербурге
Tuning: standard

INTRO
G1
Bb Bb Bb  Gb Ab Bb

G2
e|----------------------------------------------------------------|
B|----------------------------------------------------------------|
G|-10-10-10-10-8--10-11-10-8-6-10-10-10-10------------------------|
D|----------------------------------------------------------------|
A|-8--8--8--8--6--8--9--8--6-4-8--8--8--8-------------------------|
E|----------------------------------------------------------------|

G2
e|-------------------------------------------------------------------|
B|-------------------------------------------------------------------|
G|-10-10-10-10-8--10-11-10-8-13-10-10-10-10--------------------------|
D|-------------------------------------------------------------------|
A|-8--8--8--8--6--8--9--8--6-11-8--8--8--8---------------------------|
E|-------------------------------------------------------------------|

VERSE
1X
Bb Bb Bb  Ab-Eb
Bb Bb Bb  A-Ab-G
          X X  X <-- mute
Gb Ab Bb C#-D#-C#
1X
Bb Bb Bb  Ab-Eb
Bb Bb Bb  A-Ab-G
          X X  X<-- mute
Gb Ab Bb Bb Bb

CHORUS
G1
3x C# E B
1X C# F# DDDDD

G2
2x C# E B
at end of second time play
e|---------------------------------------|
B|---------------------------------------|
G|-8--10-11-10-8-------------------------|
D|---------------------------------------|
A|-6--8--9--8--6-------------------------|
E|---------------------------------------|
1x C# E B
1X C# F# DDDDD

VERSE 1X

CHORUS 1X

BRIDGE (screaming and such)
DDDD (i think, cant figure the chords out)
G#G#G#G#

OUTRO
3X Bb Bb Bb  Ab-Eb
G# G# Eb Bb
Добавлено: 17.12.2015
Другие материалы по этой песне:
  • Аккорды и текст

Страница создана 17.12.2015
http://primanota.ru/good-riddance/dry-season-chords.htm
Привет, Гость.
Предлагаем пройти революционный курс по гитаре.
Подарок от PrimaNota.Ru, забирай!