PrimaNota.ru - самый крупный в мире бесплатный архив песенных текстов, аккордов, табулатур и нот


Good Riddance - Disputatio - таба, видео

Регистрация Запомнить меня
Войти через:  Facebook Google Twitter Vk Yandex Mail.ru

Good Riddance - Disputatio - таба, видео

Печатать
Просмотров: 118
Уроки эстрадного вокала в Санкт-Петербурге
Tuning: standard



intro
e|---------------------------------------------------------------------------|
B|---------------------------------------------------------------------------|
G|-12--11-9----12--11-9----12--11-9-----12--14--7--9-------------------------|
D|---------------------------------------------------------------------------|
A|-10--9--7----10--9--7----10--9--7-----10--12--5--7-------------------------|
E|---------------------------------------------------------------------------|

1X
G F# E E E
G F# C D E (fixed)


verse 2X
E G D A CCCC B
E G DDDD C E->D

G2 played at end of verse
e|-------------------------------------|
B|-------------------------------------|
G|-16--14--12--11----------------------|
D|-------------------------------------|
A|-14--12--10--9-----------------------|
E|-------------------------------------|


Chorus 2X
E G D C->D->E

verse 2X
E G D A CCCC B
E G DDDD C E->D


Chorus 2X
E G D C->D->E
Добавлено: 17.12.2015
Вам также может быть интересно:
Другие материалы по этой песне:
  • Аккорды и текст

Страница создана 17.12.2015
http://primanota.ru/good-riddance/disputatio-chords.htm
Привет, Гость.
Предлагаем пройти революционный курс по гитаре.
Подарок от PrimaNota.Ru, забирай!