PrimaNota.ru - самый крупный в мире бесплатный архив песенных текстов, аккордов, табулатур и нот


Good Riddance - All The Joy Youve Ever Known - таба, видео

Регистрация Запомнить меня
Войти через:  Facebook Google Twitter Vk Yandex Mail.ru

Good Riddance - All The Joy Youve Ever Known - таба, видео

Печатать
Просмотров: 82
Авторы музыки: Chuck Platt
Авторы текста: Russ Rankin
Band - Good Riddance
Song - All The Joy You've Ever Known
Album - Symptoms Of A Leveling Spirit
Tabbed By: SumFX (Tyler Freear)

Very Short Song At - 0.43 Secs!
However It Is Rather Cool!

Intro
|-----------|
|-----------|
|-----------|
|-33--------|
|-33----xx--|
|-11--xx----|

Riff 1
|------------------------------|
|------------------------------|
|------------------------------|
|-33-xx-666666--33--xx-666666--|
|-33-xx-666666--33--xx-666666--|
|-11-xx-444444--11--xx-444444--|

Riff 2
|---------------------------|
|---------------------------|
|---------------------------|
|-33-xx-33-xx-33-xx-666666--|
|-33-xx-33-xx-33-xx-666666--|
|-11-xx-11-xx-11-xx-444444--|

Riff 3
|----------------|---------------|
|----------------|---------------|
|-333------------|-333-----------|
|-333-666-555555-|-333-666-5-6-5-|
|-111-666-555555-|-111-666-5-6-5-|
|-----444-333333-|-----444-3-4-3-|

Lead Lines       
Occasional Bend| Octaves At - 0.38
|--------------|------------------|
|--------------|------------------|
|-3b-----------|-15--13--12-13-12-|
|--------------|-x---x---x--x--x--|
|--------------|-13--11--10-11-10-|
|--------------|------------------|

Structure

Intro
Riff 1
Riff 2
Riff 3
Riff 1
Riff 2
Riff 3
Добавлено: 08.05.2012
Другие материалы по этой песне:
  • Аккорды и текст

Страница создана 08.05.2012
http://primanota.ru/good-riddance/all-the-joy-youve-ever-known-chords.htm
Привет, Гость.
Предлагаем пройти революционный курс по гитаре.
Подарок от PrimaNota.Ru, забирай!