PrimaNota.ru - самый крупный в мире бесплатный архив песенных текстов, аккордов, табулатур и нот


Good Old War - Thats Whats Wrong - таба, видео

Регистрация Запомнить меня
Войти через:  Facebook Google Twitter Vk Yandex Mail.ru

Good Old War - Thats Whats Wrong - таба, видео

Печатать
Просмотров: 162
Уроки эстрадного вокала в Санкт-Петербурге
Artist: Good Old War
Song: That's What's Wrong
Capo: 3rd fret
Tuning: Dropped D


Chords

G      (55043x)
D7sus2 (000210) pull-off to (000000)
Em     (222000)
F      (3x3210) pull-off to (3x3010)
C      (x32010)
Gadd9  (5x0435)
Em9/D  (x54030)
Cm     (x35543)

Listen for the strumming pattern and pull-offs


Intro (G D7sus2 Em F) x4

Intro Lead (electric)

    G        D7sus2        Em       F 
E|----------------------|---------------------------|  
B|----------3-----------|---------------------------|   
G|--0--2s4--4-2p0----0--|-------4---4p2p0-4p2p0-----|   
D|---------------0h2----|--2-------------2-----2p0--|   
A|----------------------|---------------------------|   
D|----------------------|---------------------------|

   
       G  D7sus2 Em       F           G           D7sus2 Em F
You're go--------ne, so I worry about nothing else

       G  D7sus2 Em      F           G           D7sus2 Em F
You're eye-------s, destroy me every time I think

  G  D7sus2 Em    F            G                 D7sus2 Em F
I go--------o, as far as I can get to still stay close



                  G    D7sus2   C
To see you if you've cha--------nged

        G  D7sus2 C
I'm the sa--------me

              G    F    C
That's what's wro-------ng
(That's what's wrong)
That's what's wrong


(G D7sus2 Em F) x2
 w/ intro lead



  G  D7sus2 Em        F                G           D7sus2 Em F
I sa--------id, "I've got to just get on with this"


    G  D7sus2 Em     F            G          D7sus2 E F
You a--------re, the only thing I think about


      G  D7sus2 Em     F            G                 D7sus2 Em F
But I le--------ft, as far as I can get to still stay close



                  G    D7sus2   C
To see you if you've cha--------nged

        G  D7sus2 C
I'm the sa--------me

              G    F    C
That's what's wro-------ng
(That's what's wrong)
That's what's wrong

G   Gadd9

   C        Em9/D
Oh Come and see
        G             C
There's nothing going on
        Cm
There's nothing going on with me


(G D7sus2 Em F) x2

Solo (electric)

     G       D7sus2      Em      F          G       D7sus2      Em      F  
E|--------------------------------------|------------------------------------|  
B|-1p0-1s3-3s1-----------------0-1-0----|-1p0-1s3-3s1-----------------0-1-0--|   
G|-2p0-2s4-4s2-0-2s4-0--0--0-----------2|-----2s4-4s2-0-2s4-0--0--0----------|   
D|-----------------------2----------3---|-----------------------2----------3-|   
A|--------------------------2-----------|--------------------------2---------|   
D|--------------------------------------|------------------------------------|


                  G    D7sus2   C
To see you if you've cha--------nged

        G  D7sus2 C
I'm the sa--------me

              G    F    C
That's what's wro-------ng

              G    F    C
That's what's wro-------ng

G    F    C
That's what's wro-------ng
(That's what's wrong)
G
That's what's wrong


Ending harmonic (electric)
 
E|------| 
B|-*15--| 
G|-*15--| 
D|------| 
A|------| 
D|------|


Tabbed By: tblake505
Добавлено: 27.03.2012
Другие материалы по этой песне:
  • Аккорды и текст

Страница создана 27.03.2012
http://primanota.ru/good-old-war/thats-whats-wrong-chords.htm
Привет, Гость.
Предлагаем пройти революционный курс по гитаре.
Подарок от PrimaNota.Ru, забирай!