PrimaNota.ru - самый крупный в мире бесплатный архив песенных текстов, аккордов, табулатур и нот


Good Old War - My Own Sinking Ship Sargent - таба, видео

Регистрация Запомнить меня
Войти через:  Facebook Google Twitter Vk Yandex Mail.ru

Good Old War - My Own Sinking Ship Sargent - таба, видео

Печатать
Просмотров: 82
Artist: Good Old War
Song: My Own Sinking Ship (Sargent House Glassroom Session)
Album: Good Old War (2010)
Tab: Zeppelin30

Capo 5.fret

Listen Closely For Rhythmic Alternate Picking

Bm* x04230
Em7 x22003


Intro Tab

4x
e|----2--2----2--2---------2-----|
B|----3--3----3--3---------3-----|
G|----2--2----2--0-h2-p0---0-----|
D|--0------0--4------------0-----|
A|-----------------------2-------|
E|-------------------------------|

D         Em7     D     G
What will be your story now
  D         Em7       D     G
Today it's something far inside
D          Em7   G         A
Hurts your body close your eyes
         D         G       D
And I'll bring you back to here

e|----2--2----2--2-----2--2----2--2------|
B|----3--3----3--3-----3--3----3--3------|
G|----2--2----2--2-----0--0----0--0------|
D|--0------4--------2--------------------|
A|--------------------------0------------|
E|---------------------------------------|

D       Em7    D       G
You are my own sinking ship
       D     Em7    D         G
'Cause everyday the current shifts
      D       Em7        G      A
And I picked apart your wasted lies
    D       G       D
To get you back to here

                                           Bm              Bm*     G
                               Oh it's the last time we'll fall in love
e|----2--2----2--2-----2--2----2--2------|
B|----3--3----3--3-----3--3----3--3------|
G|----2--2----2--2-----0--0----0--0------|
D|--0------4--------2--------------------|
A|--------------------------2------------|
E|---------------------------------------|

             Bm         Bm*    G
Oh it's the last try to break apart
G       Em7    D
You are not to blame


Play Intro
e|----2--2----2--2---------2-----|
B|----3--3----3--3---------3-----|
G|----2--2----2--0-h2-p0---0-----|
D|--0------0--4------------0-----|
A|-----------------------2-------|
E|-------------------------------|

D        Em7     D      G
Why can't I just be all right?
D        Em7   D        G
Why can't I invade your mind?
D         Em7       G      A
Somedays we're just so far off
      D        G           D
But I want you back right here

                                           Bm              Bm*     G
                               Yeah it's the last time we'll fall in love
e|----2--2----2--2-----2--2----2--2------|
B|----3--3----3--3-----3--3----3--3------|
G|----2--2----2--2-----0--0----0--0------|
D|--0------4--------2--------------------|
A|--------------------------2------------|
E|---------------------------------------|
             Bm         Bm*    G
Yeah it's the last try to break apart
G       Em7    D
You are not to blame


Play Intro
e|----2--2----2--2---------2-----|
B|----3--3----3--3---------3-----|
G|----2--2----2--0-h2-p0---0-----|
D|--0------0--4------------0-----|
A|-----------------------2-------|
E|-------------------------------|

D        Em7    D         G
Can't remember your last smile
   D      Em7     D       G
I think I made it happen though
       D        Em7    G          A
Then I took you off to work once more
    D      G         D      G
But I just want you, I just want you,
D      G         D
I just want you here
                                           Bm              Bm*     G
                               Yeah it's the last time we'll fall in love
e|----2--2----2--2-----2--2----2--2------|
B|----3--3----3--3-----3--3----3--3------|
G|----2--2----2--2-----0--0----0--0------|
D|--0------4--------2--------------------|
A|--------------------------2------------|
E|---------------------------------------|
             Bm         Bm*    G
Oh it's the last try to break apart
       G       Bm*    D
Sayin' You are not to blame

3x

e|----2--2----2--2---------2-----|
B|----3--3----3--3---------3-----|
G|----2--2----2--0-h2-p0---0-----|
D|--0------0--4------------0-----|
A|-----------------------2-------|
E|-------------------------------|

Outro
e|----2--2-------------2----------|
B|----3--3-------------3----------|
G|----2--2-h2-p0-----0-2----------|
D|--0------------4-2--------------|
A|--------------------------------|
E|--------------------------------|

Clap!
Добавлено: 02.04.2012
Другие материалы по этой песне:
  • Аккорды и текст

Страница создана 02.04.2012
http://primanota.ru/good-old-war/my-own-sinking-ship-sargent-chords.htm
Привет, Гость.
Предлагаем пройти революционный курс по гитаре.
Подарок от PrimaNota.Ru, забирай!