PrimaNota.ru - самый крупный в мире бесплатный архив песенных текстов, аккордов, табулатур и нот


Good Old War - My Names Sorrow - аккорды и текст, видео

Регистрация Запомнить меня
Войти через:  Facebook Google Twitter Vk Yandex Mail.ru

Good Old War - My Names Sorrow - аккорды и текст, видео

Печатать
Просмотров: 50
My Names Sorrow
Good Old War
e|-----|--------------------------|
B|-1p0-|-3------------------1-0---|
G|-----|------0---0-----0--2----2-|
D|-----|--------------4-----------|
A|-----|--------------------------|
E|-----|--------------------------|

G                     Em
Follow me back like a ride on a train 
Am                           D
Make it hard to remember the cold 
G                                Em
Take care of your money and stay out of the rain
Am                                    D
Your bones could give out when you're old 
G                            Em
I get more of a feeling from words that have truth 
  Am                        D
A feeling like something is wrong 

e|------------------|-2--------------------|
B|-0---3---1---0----|-3------3------5------|
G|-0---4---2---0----|--------4------5------|
D|------------------|---------------5------|
A|------------------|----------------------|
E|------------------|----------------------|

Let the door slide open, let the sunlight in

G                  Am  D    G
Call my name girl, Sorrow


G                       Em
All of the times that I heard you sing 
Am                            D
I hoped there parts there for me
G                                Em
I'd sing all the notes that stay out of your way
Am                            D
We can let all those melodies free 
G                          Em
I think I was meant for an uglier time 
   Am                      D
My harmony's all out of tune 

e|------------------|-2--------------------|
B|-0---3---1---0----|-3------3------5------|
G|-0---4---2---0----|--------4------5------|
D|------------------|---------------5------|
A|------------------|----------------------|
E|------------------|----------------------|
Let the verse slide over let the chorus in

G                  Am  D    G
Call my name girl, Sorrow


G                   Am            Em      C
We'll be out of the dark when the seasons pass
G                    Am         D
But you have to live now or you won't
G                       Am               Em     C 
Put your gloves on your hands, wear your winter skin
G                  Am          D
Cause it's over before you say August
G                       Am       D
All your friends will await your return

e|------------------|-2--------------------|
B|-0---3---1---0----|-3------3------5------|
G|-0---4---2---0----|--------4------5------|
D|------------------|---------------5------|
A|------------------|----------------------|
E|------------------|----------------------|

With the car doors open and the radio on 
G                  Am  D    G
Call my name girl, Sorrow

Sorrow oooo
Добавлено: 13.11.2015
Вам также может быть интересно:
Другие материалы по этой песне:
  • Аккорды и текст

Страница создана 13.11.2015
http://primanota.ru/good-old-war/my-names-sorrow-chords.htm
Привет, Гость.
Предлагаем пройти революционный курс по гитаре.
Подарок от PrimaNota.Ru, забирай!