PrimaNota.ru - самый крупный в мире бесплатный архив песенных текстов, аккордов, табулатур и нот


Good Morning - Cosmic Sass - таба, видео

Регистрация Запомнить меня
Войти через:  Facebook Google Twitter Vk Yandex Mail.ru

Good Morning - Cosmic Sass - таба, видео

Печатать
Просмотров: 48
-------------------------------------------------------------------------------
                            Cosmic Sass - Good Morning
-------------------------------------------------------------------------------
Tabbed by: Ron Hambone


Tuning: Standard

e|----4----2--------4----|              
B|------4----2--2/4------|              
G|-----------------------| Repeat 4x    
D|-----------------------|              
A|-----------------------|              
E|-----------------------|             
                                        
e|-----------------------|              
B|----7---7---8---8------|              
G|------6---6---7---7----| Repeat 2x    
D|-----------------------|              
A|-----------------------|              
E|-----------------------|              
                                     
e|-----------------------|
B|----10---8---7---6-----| 
G|-------9---9---9-------| Repeat 2x
D|-----------------------|
A|-----------------------|
E|-----------------------|

^Repeat this whole section 3x^


 Then end with:

e|----4----2--------4----|              
B|------4----2--2/4------|              
G|-----------------------| Repeat 4x    
D|-----------------------|              
A|-----------------------|              
E|-----------------------|       

e|---4---|              
B|---4---|              
G|---4---|   
D|-------|              
A|-------|              
E|-------|      


 
************************************

| /   slide up
| \   slide down
| h   hammer-on
| p   pull-off
| ~   vibrato
| +   harmonic
| x   Mute note
| b   Bend
| pb  Pre-bend
| br  Bend release
| pbr Pre-bend release
| brb Bend release bend

************************************
Добавлено: 25.12.2015
Другие материалы по этой песне:
  • Аккорды и текст

Страница создана 25.12.2015
http://primanota.ru/good-morning/cosmic-sass-chords.htm
Привет, Гость.
Предлагаем пройти революционный курс по гитаре.
Подарок от PrimaNota.Ru, забирай!