PrimaNota.ru - самый крупный в мире бесплатный архив песенных текстов, аккордов, табулатур и нот


Good Clean Fun - Punk Rock Love - текст песни, таба, видео

Регистрация Запомнить меня
Войти через:  Facebook Google Twitter Vk Yandex Mail.ru

Good Clean Fun - Punk Rock Love - текст песни, таба, видео

Печатать
Просмотров: 114
Good Clean Fun - Punk Rock Love
[Sing-Along Hardcore from "Between Christian Rock And A Hard Place"]

I've put this the way that I think is easiest to play it, but you could
play some of the chords on different strings and find it's more comfortable
for you (eg. the C in the verse might be better on the 8th fret of the E string)

[x=palm muted]

INTRO
        C
e|-------------|
B|-------------|
G|-5-5-55-5-5--|
D|-5-5-55-5-5--|
A|-3-3-33-3-3--|
E|-------------|


VERSE
    G#   C    C#   D#      G#   C   C#   C#
e|----------------------|----------------------|
B|----------------------|----------------------|
G|------5555-6666-8888--|------5555-66---6666--|
D|-6666-5555-6666-8888--|-6666-5555-66---6666--|
A|-6666-3333-4444-6666--|-6666-3333-44---4444--|
E|-4444-----------------|-4444-----------------|
   xxxx xxxx xxxx xxxx    xxxx xxxx xx   xxxx

    G#   C    C#   D#      G#   C   C#   C#
e|----------------------|----------------------|
B|----------------------|----------------------|
G|------5555-6666-8888--|------5555-66---------|
D|-6666-5555-6666-8888--|-6666-5555-66---------|
A|-6666-3333-4444-6666--|-6666-3333-44---------|
E|-4444-----------------|-4444-----------------|
   xxxx xxxx xxxx xxxx    xxxx xxxx xx  


CHORUS
    G#   C    C#   D#      G#   C   C#   C#
e|----------------------|----------------------|
B|----------------------|----------------------|
G|------5555-6666-8888--|------5555-6666-8888--|
D|-6666-5555-6666-8888--|-6666-5555-6666-8888--|
A|-6666-3333-4444-6666--|-6666-3333-4444-6666--|
E|-4444-----------------|-4444-----------------|
   
    G#   C    C#   D#      G#   C      C#       C#
e|----------------------|-------------------|----------|
B|----------------------|-------------------|----------|
G|------5555-6666-8888--|------5555-66666666|66666666--|
D|-6666-5555-6666-8888--|-6666-5555-66666666|66666666--|
A|-6666-3333-4444-6666--|-6666-3333-44444444|44444444--|
E|-4444-----------------|-4444--------------|----------|


BRIDGE
          D                    C#   
e|-------------------|-------------------|
B|-------------------|-------------------|
G|-7777777777777777--|-6666666666666666--|
D|-7777777777777777--|-6666666666666666--|
A|-5555555555555555--|-4444444444444444--|
E|-------------------|-------------------|

          D                    D   
e|-------------------|-------------|
B|-------------------|-------------|
G|-7777777777777777--|-7-7-77-7-7--|
D|-7777777777777777--|-7-7-77-7-7--|
A|-5555555555555555--|-5-5-55-5-5--|
E|-------------------|-------------|

    G#   C    C#   D#      G#   C   C#   C#
e|----------------------|----------------------|
B|----------------------|----------------------|
G|------5555-6666-8888--|------5555-6666-8888--|
D|-6666-5555-6666-8888--|-6666-5555-6666-8888--|
A|-6666-3333-4444-6666--|-6666-3333-4444-6666--|
E|-4444-----------------|-4444-----------------|

    G#   C    C#   D#      G#   C   C#   C#
e|----------------------|----------------------|
B|----------------------|----------------------|
G|------5555-6666-8888--|------5555-6666-8888--|
D|-6666-5555-6666-8888--|-6666-5555-6666-8888--|
A|-6666-3333-4444-6666--|-6666-3333-4444-6666--|
E|-4444-----------------|-4444-----------------|


LAST CHORD
G# [Like the first chord]
Добавлено: 22.06.2012
Другие материалы по этой песне:
  • Аккорды и текст

Страница создана 15.04.2012
http://primanota.ru/good-clean-fun/punk-rock-love-chords.htm
Привет, Гость.
Предлагаем пройти революционный курс по гитаре.
Подарок от PrimaNota.Ru, забирай!