PrimaNota.ru - самый крупный в мире бесплатный архив песенных текстов, аккордов, табулатур и нот


Good Charlotte - Makeshift Love - аккорды и текст, таба, видео

Регистрация Запомнить меня
Войти через:  Facebook Google Twitter Vk Yandex Mail.ru

Good Charlotte - Makeshift Love - аккорды и текст, таба, видео

Печатать
Просмотров: 114
Makeshift Love
Good Charlotte
Tabbed By: Fabio BlenderBR

   Enjoy! :)


 - Intro Riff:

e|-----------------------------------------7----------------|
B|----7-----7-----8-----10-----7-----7-----8-----10---------|
G|----7-----7-----7-----7------7-----7-----------7----------|
D|-------0-----0-----0------0-----0-----0-----0------0------|
A|----------------------------------------------------------|   2x
E|----------------------------------------------------------|


 - Intro:

D   G D    G D    G Em   G
D   G D    G D    G Em   G


 - Intro Guitar 2:

e|-------------------------------------------|
B|-------------------------------------------|
G|-11-11-9--11-11-7--11-11-9-12-12-16-16-----|
D|-x--x--x--x--x--x--x--x--x-x--x--x--x------|
A|-9--9--7--9--9--5--9--9--7-10-10-14-14-----|  2x
E|-------------------------------------------|



 - Verse:

          D                 G     D
I fucking hate these nights, the ones where you don't know me
   G        D                 G       Em                    G
If I could get this right, if I could get away from the old me
     D             G            D
But I'll survive, right now I'm dying just to breathe in
 G      D          G      Em                     G
Just to be alive, just to get away from the old me



 - Pre chorus:

             Bm              G
There's only makeshift love tonight
          D            A
There's a triage in my living room
    Bm              G
She checks my vital signs
       D          A     G   
Then opens up my wounds



 - Chorus:

           D      A
Like I'm dying tonight
         Em               G
And the whole world is laughing
       D         A             Em       G
Like everyone I love has gone away,   Whoaaa
     D       A
I'm dying tonight
    Em         G
But no one is crying
     D              A                 Em      G
It's not alright no matter what they say,   Whoaaa



 - Intro:

D   G D    G D    G Em   G


 - Intro Guitar 2:

e|-------------------------------------------|
B|-------------------------------------------|
G|-11-11-9--11-11-7--11-11-9-12-12-16-16-----|
D|-x--x--x--x--x--x--x--x--x-x--x--x--x------|
A|-9--9--7--9--9--5--9--9--7-10-10-14-14-----| 
E|-------------------------------------------|



 - Verse 2:

          D                 G      D
I fuckin' hate these fights,  The ones where you just own me
    G      D                        G     Em                    G
We used to be so tight (yeah right),  But you just want the old me
             D                                               G
Turn off the god damn lights (turn off the god damn lights!)
          D
If you're really gonna get up and just leave
   G       D          G      Em                           G
I used to get so high,  But that was just the fucking old me
   


 - Pre chorus:

             Bm              G
There's only makeshift love tonight
          D            A
There's a triage in my living room
        Bm             G
She'll  check my vital signs
   D              A
To see what else she can do



 - Chorus:

           D      A
Like I'm dying tonight
         Em               G
And the whole world is laughing
       D         A             Em       G
Like everyone I love has gone away,   Whoaaa
     D       A
I'm dying tonight
    Em         G
But no one is crying
     D              A                 Em      G
It's not alright no matter what they say,   Whoaaa


 - Bridge:

e|-----------------------------------------7----------------|
B|----7-----7-----8-----10-----7-----7-----8-----10---------|
G|----7-----7-----7-----7------7-----7-----------7----------|
D|-------0-----0-----0------0-----0-----0-----0------0------|
A|----------------------------------------------------------|   2x  (And during the bridge as well)
E|----------------------------------------------------------|

D            A          G
All that she wanted was me broken hearted
D           A            G
I know it's sad but it's true
  D              A       G
I won't get her started, now she's departed
        D          A           G
There's no looking back me and you



 - Pre chorus:

             Bm              G
There's only makeshift love tonight
          D            A
There's a triage in my living room
        Bm             G
She'll  check my vital signs
   D              A
To see what else she can do



 - Chorus:

           D      A
Like I'm dying tonight
         Em               G
And the whole world is laughing
       D         A             Em       G
Like everyone I love has gone away,   Whoaaa
     D       A
I'm dying tonight
    Em         G
But no one is crying
     D              A                 Em      G
It's not alright no matter what they say,   Whoaaa

D            A          Em            G
All that she wanted was me broken hearted
D           A            Em       G
I know it's sad but it's true



 - Intro:

D   G D    G D    G Em   G
D   G D    G D    G Em   G


 - Intro Guitar 2:

e|-------------------------------------------|
B|-------------------------------------------|
G|-11-11-9--11-11-7--11-11-9-12-12-16-16-----|
D|-x--x--x--x--x--x--x--x--x-x--x--x--x------|
A|-9--9--7--9--9--5--9--9--7-10-10-14-14-----|  2x
E|-------------------------------------------|

__________
Hope you liked!

Tabbed by: Fabio BlenderBR
Добавлено: 28.05.2016
Другие материалы по этой песне:
  • Аккорды и текст

Страница создана 28.05.2016
http://primanota.ru/good-charlotte/makeshift-love-chords.htm
Привет, Гость.
Предлагаем пройти революционный курс по гитаре.
Подарок от PrimaNota.Ru, забирай!