PrimaNota.ru - самый крупный в мире бесплатный архив песенных текстов, аккордов, табулатур и нот


Good Charlotte - I just wana live - таба, видео

Регистрация Запомнить меня
Войти через:  Facebook Google Twitter Vk Yandex Mail.ru

Good Charlotte - I just wana live - таба, видео

Печатать
Просмотров: 108


Good Charlotte
song: I just wana live
Album: Chronicles of life and death


intro/(guitar) main riff

e]-----------------------
b]-----------------------
g]-----------------------
d]-8-8--6-6--4-4--6-6      x2
a]-----------------------
E]----------------------

bass main riff
I need anlarm system
g]------------------------
d]------------------------
a]------------------------    x5
E]-8---8-6---6-4---4-6

I'm paranoid of all the people I meet

*guitar main riff*

bass riff2 (duet with guitar riff)

g]------------------------------------------------
d]------------------------------------------------
a]------------------------------------------------
E]-8-8-8-8-8-8-8-8-6-6-6-6-6-6-6-6-4-4-4-4-4-4-4-

Chorus
I just wana live

e]------------------------------------
b]------------------------------------
g]-8-8/6--6-6-6-6/4-4/6--6-6-6-6
d]-8-8/6--6-6-6-6/4-4/6--6-6-6-6     x4
a]-6-6/4--4-4-4-4/2-2/4--4-4-4-4
E]------------------------------------

Chorus (bass)

g]-----------------------------
d]-----------------------------
a]-----------------------------    x4
E]-8-8/6-6-6/4-4/6-6-6---

I rock a
*Bass main riff* x4

*guitar riff* x2
duet
*bass riff 2*

Chorus 2
I just wana live

*Guitar/bass chorus*

e]-------------
b]-------------
g]-4--4--4/6-
d]-4--4--4/6-
a]-2--2--2/4-
E]-------------

bass (final riff)
stop your messin around boy

g]--------------------------------------
d]--------------------------------------    x4
a]--------------------------------------
E]-4--4-4---4--4-4--4-6-6---6--6-6

final chorus

We've already seen the worste of this life
*Bass/guitar chorus*
I just wana live
*Bass/guitar chorus*
I just wana live
*Bass/guitar chorus*


Добавлено: 11.02.2014
Другие материалы по этой песне:
  • Аккорды и текст

Страница создана 11.02.2014
http://primanota.ru/good-charlotte/i-just-wana-live-chords.htm
Привет, Гость.
Предлагаем пройти революционный курс по гитаре.
Подарок от PrimaNota.Ru, забирай!