PrimaNota.ru - самый крупный в мире бесплатный архив песенных текстов, аккордов, табулатур и нот


Good Charlotte - Gravity Girl - текст песни, таба, видео

Регистрация Запомнить меня
Войти через:  Facebook Google Twitter Vk Yandex Mail.ru

Good Charlotte - Gravity Girl - текст песни, таба, видео

Печатать
Просмотров: 128
Уроки эстрадного вокала в Санкт-Петербурге
Artist: Good Charlotte
Song: Gravity Girl
Album: UNRELEASED
E-mail: tim.rathgen@gmx.de
Tabbed by: Necriononguitar

REAL FANS SUPPORT BANDS BY PURCHASING THEIR CD'S!!!


Tuning: Standard

. = Palm-Muted
~ = hold note
^ = vibrate
p = pull off
h = hammer on
/ = slide up
\ = slide down



//Capo 1 fret\\

Link: http://de.youtube.com/watch?v=-6vlI3jE7ns              bad quality :(


Intro:
Guitar 1
   D    A    G   A
E--x---(0)--(3)-(0)-------------------|
B--3----2----3---2--------------------|
G--2----2----0---2--------------------|
D--0----2----0---2--------------------|
A-------0----2---0--------------------|
E------------3------------------------|

Guitar 2: (Its your choice to play it, i just added it to get a whole song)
E------------5------------------------------------5-----------------------|
B-------------------7---------------------------------------5-------------|
G-----7----------------------7-------------6------------------------6-----|
D--7-----7------(7)-----7--------------7-------7------(7)-------7---------|
A-------------------------------------------------------------------------|
E-------------------------------------------------------------------------|

E------------3-------------------------------------5----------------------|
B---------------------3------------------------------------5--------------|
G------4----------------------4------------6-----------------------6------|
D---5-----5-----(5)-------5------------7-------7-----(7)-------7----------|
A-------------------------------------------------------------------------|
E-------------------------------------------------------------------------|


Verse! (there will be no more Git 2 btw)

    //Strumming\\                U= Upstoke   D=Downstroke
     D   D U     U  D  U
E----x---x-x-----x--x--x-----------|
B----x---x-x-----x--x--x-----------|
G----x---x-x-----x--x--x-----------|
D----x---x-x-----x--x--x-----------|
A----x---x-x-----x--x--x-----------|
E----x---x-x-----x--x--x-----------|

Chords:
D, A, G, A        (same as intro, just strumming)

Chorus:
D, Fm, G, A


      E---2-----|
      B---2-----|
      G---2-----|
 Fm:  D---4-----|
      A---4-----|
      E---2-----|

Lyrics:
I could sit for hours in the conditions of the sun
And we could talk for hours 'cause you know you're the one
And everytime I open up my heart to you
You bring me down (You rip it out) Gravity Girl
You bring me down (You bring me down in your world)
You tell me that we're through
Cause you're my
Gravity Girl, Gravity Girl
iv got my own, your my whole world
You're my Gravity Girl
I'm so high in your world
I could sit for hours in the conditions of the sun(Gravity Girl)
and we could talk for hours
'cause you know you're the one (Gravity Girl)
And everytime I open up my heart to you
You bring me down (You rip it out) Gravity Girl
You bring me down (You bring me down in your world)
You tell me that we're through
Cause you're my
Gravity Girl, Gravity Girl
iv got my own, your my whole world
You're my Gravity Girl
(High in the sky with the sun and the moon but you always bring me down again)
I'm so high in your world
(High in the sky with the sun and the moon but you always bring me down again)
Gravity Girl Gravity Girl Gravity Girl Gravity Girl
Ooooooooooo ooooooooooooooo
(Gravity Girl Gravity Girl Gravity Girl)


Thats it! I hope this helped, please rate, comment and correct me!

Cheers...
Добавлено: 09.03.2012
Другие материалы по этой песне:
  • Аккорды и текст

Страница создана 09.03.2012
http://primanota.ru/good-charlotte/gravity-girl-chords.htm
Привет, Гость.
Предлагаем пройти революционный курс по гитаре.
Подарок от PrimaNota.Ru, забирай!