PrimaNota.ru - самый крупный в мире бесплатный архив песенных текстов, аккордов, табулатур и нот


Good Charlotte - Clique - аккорды и текст, таба, видео

Регистрация Запомнить меня
Войти через:  Facebook Google Twitter Vk Yandex Mail.ru

Good Charlotte - Clique - аккорды и текст, таба, видео

Печатать
Просмотров: 161
Уроки эстрадного вокала в Санкт-Петербурге
Clique
Good Charlotte
Author/Artist: Good Charlotte
Title: Click
Transcribed by: Joey Nichols
Email: Aeropostale714@aol.com

This is 100% correct!! I listened to the song about a million times so this should be correct. It's really 
and if you can't play it, give up on guitar

------------------------------------------------------------------------------|
------------------------------------------------------------------------------|
------------------------------------------------------------------------------|
-0-2/42-0-2/42-0-2/42/4/542--0-2/42-0-2/42-0----0-2/42-0-2/4^2-------|
------------------------------------------------------------------------------|
------------------------------------------------------------------------------|


------------------------------------------------------------------------------|
------------------------------------------------------------------------------|
------------------------------------------------------------------------------|
-0-2/42/4/542-0-2/42-0-2/42-0--------------------------------------------|
------------------------------------------------------------------------------|
------------------------------------------------------------------------------|
     Intro

------------------------------------------------------------------------------|
------------------------------------------------------------------------------|
--7xxxxxx---------------------------------------------------------------------|
--7xxxxxx--7xxxxxx-5xxxxxx-xxxxxxx--------------------------------------------|
--5xxxxxx--7xxxxxx-5xxxxxx-xxxxxxx--------------------------------------------|
-----------5xxxxxx-3xxxxxx-xxxxxxx--------------------------------------------|
     Verse  x2

------------------------------------------------------------------------------|
------------------------------------------------------------------------------|
-7xx7xx7----------------------------------------------------------------------|
-7xx7xx7-7xx7xx7-5xx5xx5-7xx7xx7----------------------------------------------|
-5xx5xx5-7xx7xx7-5xx5xx5-7xx7xx7----------------------------------------------|
---------5xx5xx5-3xx3xx3-5xx5xx5----------------------------------------------|
     Pre-chorus  x 2

------------------------------------------------------------------------------|
------------------------------------------------------------------------------|
--7777777---------------------------------------------------------------------|
--7777777-7777777-5555555-7777777---------------------------------------------|
--5555555-7777777-5555555-7777777---------------------------------------------|
----------5555555-3333333-5555555---------------------------------------------|
     Chorus  x4

------------------------------------------------------------------------------|
------------------------------------------------------------------------------|
------------------------------------------------------------------------------|
-0-2/42-0-2/42-0-2/42/4/542-0-2/42-0-2/42-0----------------------------|
------------------------------------------------------------------------------|
------------------------------------------------------------------------------|
 ^After the chorus~ then play verse x 2 and then pre-chorus x2 then chorus x3

------------------------------------------------------------------------------|
------------------------------------------------------------------------------|
-7----------------------------------------------------------------------------|
-7---7---5--------------------------------------------------------------------|
-5---7---5--------------------------------------------------------------------|
-----5---3--------------------------------------------------------------------|
     Play this during the slow part x2

------------------------------------------------------------------------------|
------------------------------------------------------------------------------|
------------------------------------------------------------------------------|
-0-2/42-0-2/42-0-2/42/4/542-0-2/42-0-2/42-0-2/42/4/542--------------|
------------------------------------------------------------------------------|
------------------------------------------------------------------------------|
 This is the part Benji plays aftert the slow part

------------------------------------------------------------------------------|
------------------------------------------------------------------------------|
-7777777----------------------------------------------------------------------|
-7777777-7777777-5555555-7777777----------------------------------------------|
-5555555-7777777-5555555-7777777----------------------------------------------|
---------5555555-3333333-5555555----------------------------------------------|
 This is the part Billy plays after the slow part x2~these r played together

------------------------------------------------------------------------------|
------------------------------------------------------------------------------|
-777-------------777----------------------------------------------------------|
-777-777-555-777-777-777-555-7777777------------------------------------------|
-555-777-555-777-555-777-555-7777777------------------------------------------|
-----555-333-555-----555-333-5555555------------------------------------------|
   Play this next x2

------------------------------------------------------------------------------|
------------------------------------------------------------------------------|
------------------------------------------------------------------------------|
-0-2/42-0-2/42-0-2/42/4/542-0--------------------------------------------|
------------------------------------------------------------------------------|
------------------------------------------------------------------------------|
    Then this x2

------------------------------------------------------------------------------|
------------------------------------------------------------------------------|
-7----------------------------------------------------------------------------|
-7-7-5------4/542-0---------------------------------------------------------|
-5-7-5------------------------------------------------------------------------|
---5-3------------------------------------------------------------------------|
 Outro
Добавлено: 08.06.2012
Другие материалы по этой песне:
  • Аккорды и текст

Страница создана 20.05.2012
http://primanota.ru/good-charlotte/clique-chords.htm
Привет, Гость.
Предлагаем пройти революционный курс по гитаре.
Подарок от PrimaNota.Ru, забирай!