PrimaNota.ru - самый крупный в мире бесплатный архив песенных текстов, аккордов, табулатур и нот


Good Charlotte - Break Her Heart - текст песни, таба, видео

Регистрация Запомнить меня
Войти через:  Facebook Google Twitter Vk Yandex Mail.ru

Good Charlotte - Break Her Heart - текст песни, таба, видео

Печатать
Просмотров: 87
By:Andrei Gutierrez Rada (Bolivia)

Intro:  con distorsión

|--------------------------------------------—-----------------------|
|--7--7--7-7-7--7-7-7-7—-7-7--7--7--7-7-7--7-7-—7-6-4----------------|
|--x--x--x-x-x--x-x-x-x--x-x--x--x--x-x-x--x-x--x-x-x----------------|x5
|--4--4--4-4-4--4-4-4-4--4-4--4--4--4-4-4--4-4-—4-3-1----------------|
|--------------------------------------------—-----------------------|
|--------------------------------------------—-----------------------|
Verse1: mute
|--------------------------------------------—-----------------------|
|----7---6---4---4---------------------------—-----------------------|
|--4---4---4---4—--x5—--3/4--6-4-6-4-6-4-6-4-—-----------------------|
|--------------------------------------------—-----------------------|
|--------------------------------------------—-----------------------|
|--------------------------------------------—-----------------------|

|--------------------------------------------—-----------------------|
|----7---6---4---4-----------------------------—---------------------|
|--4---4---4---4---x3---3/4--6-4-6-4-6-4-6-4--—----------------------|
|--------------------------------------------—-----------------------|
|--------------------------------------------—-----------------------|
|--------------------------------------------—-----------------------|

|--------------------------------------------—-----------------------|
|----7---6---4---4-----------------------------—---------------------|
|--4-4-4-4-4-4-4-4-x3---3/4--6-4-6-4-6-4-6-4---—---------------------|
|--------------------------------------------—-----------------------|
|--------------------------------------------—-----------------------|
|--------------------------------------------—-----------------------|

Chorus:
|--------------------------------------------—-----------------------|
|--7--7--7-7-7--7-7-7-7—-7-7--7--7--7-7-7--7-7-—7-6-4----------------|
|--x--x--x-x-x--x-x-x-x--x-x--x--x--x-x-x--x-x--x-x-x----------------|x4
|--4--4--4-4-4--4-4-4-4--4-4--4--4--4-4-4--4-4-—4-3-1----------------|
|--------------------------------------------—-----------------------|
|--------------------------------------------—-----------------------|

Verse2:
|--------------------------------------------—-----------------------|
|----7---6---4---4-----------------------------—---------------------|
|--4---4---4---4---x4---3/4--6-4-6-4-6-4-6-4--—----------------------|
|--------------------------------------------—-----------------------|
|--------------------------------------------—-----------------------|
|--------------------------------------------—-----------------------|

|--------------------------------------------—-----------------------|
|----7---6---4---4-----------------------------—---------------------|
|--4---4---4---4---x3---3/4--6-4-6-4-6-4-6-4--—----------------------|
|--------------------------------------------—-----------------------|
|--------------------------------------------—-----------------------|
|--------------------------------------------—-----------------------|

|-------------------------9-6----------------—-----------------------|
|----7---6---4---4----7-9-----7p6-7-9------------—-------------------|
|--4---4---4---4----------------------------—------------------------|
|--------------------------------------------—-----------------------|
|--------------------------------------------—-----------------------|
|--------------------------------------------—-----------------------|

Chorus:
|--------------------------------------------—-----------------------|
|--7--7--7-7-7--7-7-7-7—-7-7--7--7--7-7-7--7-7-—7-6-4----------------|
|--x--x--x-x-x--x-x-x-x--x-x--x--x--x-x-x--x-x--x-x-x----------------|x4
|--4--4--4-4-4--4-4-4-4--4-4--4--4--4-4-4--4-4-—4-3-1----------------|
|--------------------------------------------—-----------------------|
|--------------------------------------------—-----------------------|

Verse3:
|--------------------------------------------—-----------------------|
|--------------------------------------------—-----------------------|
|--8--8--8-8-6-8-6--------------------8--8--8-8-6-8-10---------------|
|--8--8--8-8-6-8-6---8--8--8-8-6-8-6--8--8--8-8-6-8-10---------------|
|--6--6--6-6-4-6-4---8--8--8-8-6-8-6--6--6--6-6-4-6-8----------------|
|--------------------6--6--6-6-4-6-4----------—----------------------|

|--------------------------------------------—-----------------------|
|--------------------------8--8--8-8-6-8-6---—-----------------------|
|--15--15--15-15-11-15-11--8--8--8-8-6-8-6—--------------------------|
|--------------------------6--6--6-6-4-6-4---—-----------------------|
|--13--13--13-13-13-13-13--------------------—-----------------------|
|--------------------------------------------—-----------------------|

|-------------------------9-6----------------—-----------------------|
|----7---6---4---4----7-9-----7p6-7-9------------—-------------------|x10
|--4---4---4---4----------------------------—------------------------|
|--------------------------------------------—-----------------------|
|--------------------------------------------—-----------------------|
|--------------------------------------------—-----------------------|

Chorus:
|--------------------------------------------—-----------------------|
|--7--7--7-7-7--7-7-7-7—-7-7--7--7--7-7-7--7-7-—7-6-4----------------|
|--x--x--x-x-x--x-x-x-x--x-x--x--x--x-x-x--x-x--x-x-x----------------|x4
|--4--4--4-4-4--4-4-4-4--4-4--4--4--4-4-4--4-4-—4-3-1----------------|
|--------------------------------------------—-----------------------|
|--------------------------------------------—-----------------------|

End:
|--------------------------------------------—-----------------------|
|--7--7--7-7-7--7-7-7-7—-7-7--7--7--7-7-7--7-7-—7-6-4----------------|
|--x--x--x-x-x--x-x-x-x--x-x--x--x--x-x-x--x-x--x-x-x----------------|x4
|--4--4--4-4-4--4-4-4-4--4-4--4--4--4-4-4--4-4-—4-3-1----------------|
|--------------------------------------------—-----------------------|
|--------------------------------------------—-----------------------|


|-------------------------9-6----------------—-----------------------|
|----7---6---4---4----7-9-----7p6-7-9------------—-------------------|
|--4---4---4---4-----------------------8----—------------------------|
|--------------------------------------8-----—-----------------------|
|--------------------------------------6-----—-----------------------|
|--------------------------------------------—-----------------------|

Gracias a mis amigos: Nano,Taylor,Luigi,Rochi,Chino y a los kollas por apoyarme siempre 
le dedico esta canción a esa mujer tan special para mi.
A mis padres y familia por ser tan comprensivos y Aguante Mashrmellows mi banda¡¡¡¡¡¡¡¡¡
Добавлено: 12.07.2013
Другие материалы по этой песне:
  • Аккорды и текст

Страница создана 03.07.2012
http://primanota.ru/good-charlotte/break-her-heart-chords.htm
Привет, Гость.
Предлагаем пройти революционный курс по гитаре.
Подарок от PrimaNota.Ru, забирай!