PrimaNota.ru - самый крупный в мире бесплатный архив песенных текстов, аккордов, табулатур и нот


Good Charlotte - Another Loser Anthem - таба, видео

Регистрация Запомнить меня
Войти через:  Facebook Google Twitter Vk Yandex Mail.ru

Good Charlotte - Another Loser Anthem - таба, видео

Печатать
Просмотров: 100
Song: The Anthem's live version, 'Another Loser Anthem'.
By: Good Charlotte
Album: The Young and the Hopeless
Tabbed by: Zack Martin
E-mail: guitaristzm@yahoo.com

This song is very good, and easy to play, I hope you enjoy.  I realized after I made this tab everything is one fret too deep.  You can play it higher, but I personally like the sound better this way.  If you want the official version, go buy the tab book, but this is just as good only free.  That's all.  I hope you enjoy this tab.  Also, this is my very first tab, so please rate it for me, by the way, the ratings so far look great, thanks guys!!!


Intro (delay):                                                      
E-----------------------------------------------------------------------
B-----------------------------------------------------------------------
G---6--6--------------------------6--6----------------------------------
D---6--6--6--6--6--4--4--6--6--6--6--6--6--6--6--4----------------------
A---4--4--6--6--6--4--4--6--6--6--4--4--6--6--6--4----------------------
E---------4--4--4--2--2--4--4--4--------4--4--4--2----------------------
                                                                        

Post Intro:                                                         
E-----------------------------------------------------------------------
B-----------------------------------------------------------------------
G---6--x--6--6--6--6--8--10--------------11--11--10--8------------------
D---6--x--6--6--x--x--x--x---6--x--6--6--x---x---x---x--4--x--4--4------
A---4--x--4--4--4--4--6--8---6--x--6--6--9---9---8---6--4--x--4--4------
E----------------------------4--x--4--4-----------------2--x--2--2------
                                                                        

                                                                        
E-----------------------------------------------------------------------
B-----------------------------------------------------------------------
G---5--5--6--8--------------8--8--6--6--5--5--6--6--6-------------------
D---x--x--x--x--6--x--6--6--x--x--x--x--x--x--x--x--x-------------------
A---3--3--4--6--4--x--4--4--6--6--4--4--3--3--4--4--4-------------------
E---------------4--x--4--4----------------------------------------------
                                                                        

Verse: (Palm Mute this whole line)                                  
E-----------------------------------------------------------------------
B-----------------------------------------------------------------------
G---6--6--6-----6--------------------------------6--6--6-----6----------
D---6--6--6-----6-----6-----6--6-----6--6--6-----6--6--6-----6----------
A---4--4--4-----4-----6-----6--6-----6--6--6-----4--4--4-----4----------
E---------------------4-----4--4-----4--4--4----------------------------
                                                                        

Verse con't.: (Palm mute this line)                                 
E-----------------------------------------------------------------------
B-----------------------------------------------------------------------
G------------------------------6--6--6-----6----------------------------
D---4-----4--4-----4--4--4-----6--6--6-----6----------------------------
A---4-----4--4-----4--4--4-----4--4--4-----4----------------------------
E---2-----2--2-----2--2--2----------------------------------------------
                                                                        

Verse con't.:                        Billy plays all the chords.     
E-----------------------------------------------------------------------
B-----------------------------------------------------------------------
G-----------------------------------------------------------------------
D------------6--6--x-----6--6--x-----4--4--4--4--4--4--4--4--4--4--4----
A------------6--6--x-----6--6--x-----4--4--4--4--4--4--4--4--4--4--4----
E------------4--4--x-----4--4--x-----2--2--2--2--2--2--2--2--2--2--2----
                                                                        

Verse con't.:                  Benji Plays this on the fifth chord.     
E-----------------------------------------------------------------------
B-----------------------------------------------------------------------
G-----------------------------------------------------------------------
D---4--4--4--4--4--------------------------------------6--6--6--6-------
A---4--4--4--4--4--------------------------4--4--4--4--------------4----
E---2--2--2--2--2--------------2--2--2--2-------------------------------
                                                                        

Pre Chorus:                                                
E-----------------------------------------------------------------------
B-----------------------------------------------------------------------
G------------3--3--3--3--3--3--3--3--------------------------6--6--6----
D------------3--3--3--3--3--3--3--3--4--4--4--4--4--4--4--4--6--6--6----
A---4--4--4--1--1--1--1--1--1--1--1--4--4--4--4--4--4--4--4--4--4--4----
E------------------------------------2--2--2--2--2--2--2--2-------------
                                                                        

                                                                        
E-----------------------------------------------------------------------
B-----------------------------------------------------------------------
G---6--6--6--6--6--6--6--6--6--6--6--6--6--3--3--3--3--3--3--3--3-------
D---6--6--6--6--6--6--6--6--6--6--6--6--6--3--3--3--3--3--3--3--3-------
A---4--4--4--4--4--4--4--4--4--4--4--4--4--1--1--1--1--1--1--1--1-------
E-----------------------------------------------------------------------
                                                                        

    PM_____________________________________________       Chorus:       
E-----------------------------------------------------------------------
B-----------------------------------------------------------------------
G---6--6--6--6--6--6--6--6--6--6--6--6--6--6--6--6--------6-------------
D---6--6--6--6--6--6--6--6--6--6--6--6--6--6--6--6--------6--6--6--4----
A---4--4--4--4--4--4--4--4--4--4--4--4--4--4--4--4--------4--6--6--4----
E------------------------------------------------------------4--4--2----
                                                                        

                                                                        
E-----------------------------------------------------------------------
B-----------------------------------------------------------------------
G---------------------6-----------------------------6-------------------
D---4--6--6--6--6--6--6--6--6--4--4--7--7--7--6--6--6--6--6--4--4--6----
A---4--6--6--6--6--6--4--6--6--4--4--7--7--7--6--6--4--6--6--4--4--6----
E---2--4--4--4--4--4-----4--4--2--2--5--5--5--4--4-----4--4--2--2--4----
                                                                        

Post Intro 2:               
E-----------------------------------------------------------------------
B-----------------------------------------------------------------------
G---------------6-----------------------------6--x--6--6--6--6--8-------
D---6--6--6--6--6--6--6--4--4-----------------6--x--6--6--x--x--x-------
A---6--6--6--6--4--6--6--4--4-----------------4--x--4--4--4--4--6-------
E---4--4--4--4-----4--4--2--2-------------------------------------------
                                                                        

                                                                        
E-----------------------------------------------------------------------
B-----------------------------------------------------------------------
G---10--------------11--11--10--8--------------5--5--6--8---------------
D---x---6--x--6--6--x---x---x---x--4--x--4--4--x--x--x--x--4--x--4------
A---8---6--x--6--6--9---9---8---6--4--x--4--4--3--3--4--6--4--x--4------
E-------4--x--4--4-----------------2--x--2--2--------------2--x--2------
                                                                        

                                                                        
E-----------------------------------------------------------------------
B-----------------------------------------------------------------------
G------5--5--6--8--------------8--8--6--6--5--5--6--8--6----------------
D---4--x--x--x--x--6--x--6--6--x--x--x--x--x--x--x--x--x----------------
A---4--3--3--4--6--6--x--6--6--6--6--4--4--3--3--4--6--4----------------
E---2--------------4--x--4--4-------------------------------------------
                                                                        

Verse 2: (bass plays first, then guitar comes)                            
E-----------------------------------------------------------------------
B-----------------------------------------------------------------------
G---------------------------4--4--4--4--4--4--4--4--4--4--4--4--4--4----
D---6--6--x-----6--6--x-----4--4--4--4--4--4--4--4--4--4--4--4--4--4----
A---6--6--x-----6--6--x-----2--2--2--2--2--2--2--2--2--2--2--2--2--2----
E---4--4--x-----4--4--x-------------------------------------------------
                                                                        

       On eighth chord, play:                                           
E-----------------------------------------------------------------------
B-----------------------------------------------------------------------
G---4--------------------------6--6--6--6-------------------------------
D---4--------------4--4--4--4--------------4--4--4--4-------------------
A---2--2--2--2--2-------------------------------------------------------
E-----------------------------------------------------------------------
                                                                        

          -Palm Mute this line-                                         
E-----------------------------------------------------------------------
B-----------------------------------------------------------------------
G-----------------------------------------------------------------------
D------------3-----4--3--6-----6--6-----6--6--6--------3-----4--3--4----
A---------4-----4--------6-----6--6-----6--6--6-----4-----4--------4----
E------------------------4-----4--4-----4--4--4--------------------2----
                                                                        

         -Also, Palm Mute this here--End Palm Mute-                    
E-----------------------------------------------------------------------
B-----------------------------------------------------------------------
G-----------------------------------------------------------------------
D------4--4--4--4--4-----3-----4--3--6--6--x-----6--6--x-----4--4--4----
A------4--4--4--4--4--4-----4--------6--6--x-----6--6--x-----4--4--4----
E------2--2--2--2--2-----------------4--4--x-----4--4--x-----2--2--2----
                                                                        

                                                                        
E-----------------------------------------------------------------------
B-----------------------------------------------------------------------
G-----------------------------------------------------------------------
D---4--4--4--4--4--4--4--4--4--4--4--4--4-------------------------------
A---4--4--4--4--4--4--4--4--4--4--4--4--4-------------------------------
E---2--2--2--2--2--2--2--2--2--2--2--2--2-------------------------------
                                                                        

On fifth chord, play:                             
E-----------------------------------------------------
B-----------------------------------------------------
G-----------------------------------------------------
D---------------------------6--6--6--6----------------
A---------------4--4--4--4--------------4--4--4--4----
E---2--2--2--2----------------------------------------
                                                                        

Chorus 2:                                                           
E-----------------------------------------------------------------------
B-----------------------------------------------------------------------
G---6-----------------------------6-----------------------------6-------
D---6--6--6--4--4--6--6--6--6--6--6--6--6--4--4--7--7--7--6--6--6--6----
A---4--6--6--4--4--6--6--6--6--6--4--6--6--4--4--7--7--7--6--6--4--6----
E------4--4--2--2--4--4--4--4--4-----4--4--2--2--5--5--5--4--4-----4----
                                                                        

                                                                        
E-----------------------------------------------------------------------
B-----------------------------------------------------------------------
G---------------------------6-------------------------------------------
D---6--4--4--6--6--6--6--6--6--6--6--4--4--7--7--7--8-------------------
A---6--4--4--6--6--6--6--6--4--6--6--4--4--7--7--7--8-------------------
E---4--2--2--4--4--4--4--4-----4--4--2--2--5--5--5--6-------------------
                                                                        

Interlude (Palm Muted):         
---------------------------------
---------------------------------
---------------------------------
-8--8-----8--8--8-----8--6-------
-8--8-----8--8--8-----8--6-------
-6--6-----6--6--6-----6--4-------
                                                                        

                                                                        
E-----------------------------------------------------------------------
B-----------------------------------------------------------------------
G-----------------------------------------------------------------------
D---6--6--6-----6--4-----4--4--4-----4--6-----6--6--6-----6--8-----8----
A---6--6--6-----6--4-----4--4--4-----4--6-----6--6--6-----6--8-----8----
E---4--4--4-----4--2-----2--2--2-----2--4-----4--4--4-----4--6-----6----
                                                                        

                                                                        
E-----------------------------------------------------------------------
B-----------------------------------------------------------------------
G---------------6-----6--6--6-----6-------------------------------------
D---8--8-----8--6-----6--6--6-----6--6-----6--6--6-----6--6--6--6--6----
A---8--8-----8--4-----4--4--4-----4--6-----6--6--6-----6--6--6--6--6----
E---6--6-----6-----------------------4-----4--4--4-----4--4--4--4--4----
                                                                        

             Solo:                                                      
E-----------|-----------------------------------------------------------
B-----------|-----------------------------------------------------------
G-----------|-----------------------------------------------------------
D---6--6--6-|-----------------------------------------------------------
A---6--6--6-|-8--8--8--6--8--6--6--6--6--8--8--8--6--8--9--9--9--8--6---
E---4--4--4-|-----------------------------------------------------------
                                                                        

                                                                        
E-----------------------------------------------------------------------
B-----------------------------------------------------------------------
G-----------------------------------------------------------------------
D-----------------------------------------------------------------------
A---8--8--8--6--8--6--6--6--8--6--4--4--4--4--4--6--6--6--6--8--8--8----
E-----------------------------------------------------------------------
                                                                        

                                [Start this rhythm part when the lead                                       
E-----------------------------------------------------------------------
B-----------------------------------------------------------------------
G--------------------------------6--6-----8--8--8-----10--10--10--------
D--------------------------------x--x-----x--x--x-----x---x---x---------
A---8--9--9--8/9--8--------------4--4-----6--6--6-----8---8---8---------
E-----------------------------------------------------------------------
                                                                        

guitarist plays the 1st 4]   Ending:                                  
E---------------------------|-------------------------------------------
B---------------------------|-------------------------------------------
G---10--10--11--10--11--10--|---6--6------------------------------------
D---x---x---x---x---x---x---|---6--6--6--6--4--4--6---------------------
A---8---8---9---8---9---8---|---4--4--6--6--4--4--6---------------------
E---------------------------|---------4--4--2--2--4---------------------
                                                                        

    Play two more times, then..                                         
E---------------------------------------------------------x--x--x--x----
B---------------------------------------------------------x--x--x--x----
G---------------------------------------6--6--------------x--x--x--x----
D---6-----------------------------------6--6--6--6--4--4--x--x--x--x----
A---6-----------------------------------4--4--6--6--4--4--x--x--x--x----
E---4-----------------------------------------4--4--2--2--x--x--x--x----
                                                                        

                            Play four more times, then....              
E-----------------------------------------------------------------------
B-----------------------------------------------------------------------
G------6--6--------------------------------------------------------6----
D------6--6--6--6--4--4--6--6--------------------------------------6----
A------4--4--6--6--4--4--6--6--------------------------------------4----
E------------4--4--2--2--4--4-------------------------------------------
                                                                        

                                                                        
E-----------------------------------------------------------------------
B-----------------------------------------------------------------------
G---6--------------6----------------------------------------------------
D---6--6--6--4--6--6----------------------------------------------------
A---4--6--6--4--6--4----------------------------------------------------
E------4--4--2--4-------------------------------------------------------
                                                                        

Order:
Intro 
Post Intro 
Verse x2 
Pre Chorus 
Chorus 
Post Intro 2 
Verse 2 
Pre Chorus 
Chorus 2 
Interlude 
Solo 
Intro x2 
Ending
Добавлено: 21.08.2013
Другие материалы по этой песне:
  • Аккорды и текст

Страница создана 21.08.2013
http://primanota.ru/good-charlotte/another-loser-anthem-chords.htm
Привет, Гость.
Предлагаем пройти революционный курс по гитаре.
Подарок от PrimaNota.Ru, забирай!