PrimaNota.ru - самый крупный в мире бесплатный архив песенных текстов, аккордов, табулатур и нот


Goo Goo Dolls - Let Love In - аккорды и текст, таба, бас-таба, видео

Регистрация Запомнить меня
Войти через:  Facebook Google Twitter Vk Yandex Mail.ru

Goo Goo Dolls - Let Love In - аккорды и текст, таба, бас-таба, видео

Печатать
Просмотров: 272
Let Love In
Goo Goo Dolls
-------------------------------------------------------------------------------
                      LET LOVE IN - The Goo Goo Dolls
-------------------------------------------------------------------------------

Tabbed by: Rafael Del Valle F.
Email: ji-rafa@hotmail.com

Tuning: Standard

Chords Used:

   Bm     D      Dsus2  D/A    D/B    A      Asus4  Em9    F#m    F#madd11
e|-2------2------0------2------2------0------0------0------2------2-------|
B|-3------3------2------3------3------2------3------3------2------2-------|
G|-4------2------3------2------2------2------2------0------2------2-------|
D|-4------0------0------0------0------2------2------2------4------4-------|
A|-2--------------------0------2------0------0------2------4------2-------|
E|--------------------------------------------------0------2------2-------|


Intro
=====


 
 "In Crescendo" Riff
    
e|--------------------------------------------------------------------------|
B|--------------------------------------------------------------------------|
G|-----------------2~~~-----------------------------------------------------|
D|--4~~~-----------4~~~---------------2~~~----------------4~~~--------------|
A|--------------------------------------------------------5~~~--------------|
E|--------------------------------------------------------------------------|


 Strumming Pattern "A"

    Bm             D                  Asus4          Em9
e|--2--------------2----------------------------(5)-------------------------|
B|--3----3-----3---3------3-----3---3-3----3-----3---3------3-----3---3-----|
G|--4--------4-----2----2-----2-------2--------2---2-0----0-----0---0-------|
D|--4------4-----4-0--------0-----0---2------2-------2--------2-------------|
A|--2---------------------------------0-------------------------------------|
E|--------------------------------------------------------------------------|


 Strumming Pattern "B" (The Flute Melody)

    Bm                  D
e|------0-2-0-----0-2-0-----0-2-0-----0-2-0---------------------------------|
B|----3---------3---------3---------3---------------------------------------|
G|---4---------4---------2---------2----------------------------------------|
D|--4---------4---------0---------0-----------------------------------------|
A|--------------------------------------------------------------------------|
E|--------------------------------------------------------------------------|
 
    Asus4                Em9
e|------0---0-----0---0------0---0-----0---0--------------------------------|
B|----3---3-----3---3------3---3-----3---3----------------------------------|
G|---2---------2----------0---------0---------------------------------------|
D|--2---------2----------2---------2----------------------------------------|
A|--------------------------------------------------------------------------|
E|--------------------------------------------------------------------------|

Now you can keep playing the strumming patterns
or just simply use the chords as you want


Verse 1
=======

With Strumming Pattern "A"
--------------------------

Bm         D                 A                Em9
You wait,       wanting this world to let you in

         Bm            D               A               Em9
And you stand there, a frozen light in dark and empty streets


With Strumming Pattern"B"
-------------------------

Bm         D            A                   Em9
You smile      hiding behind that God-given face

    Bm                          D
But I know you're so much more, everything they ignore

   A                  Em9
Is all that I need to see



Chorus 1
========

           D                 D  
You're the only one I ever believed in

    G                          G
The answer that could never be found

    Bm                    Asus4    G
The moment you decided to let love in

        D                         D
Now I'm banging on the door of an angel

    G                         G
The end of fear is where we begin

    Bm                   Asus4    G
The moment we decided to let love in



Verse 2
=======

Use rake & full chords (listen to the song for the rythm)
---------------------------------------------------------

Bm         D                 A                  Em9
I wish           Wishing for you to find your way

         Bm          A                    A              Em9
And I'll hold on for all you need, that's all we need to say


Bm                         D      
I'll take my chances while you take your time with

     A        Em9
This game you play

    Bm                         D
But I can't control your soul, you need to let me know

    A                    Em9
You leaving or you gonna stay



Chorus 2
========

           D                 D  
You're the only one I ever believed in

    G                          G
The answer that could never be found

    Bm                    Asus4    G
The moment you decided to let love in

        D                         D
Now I'm banging on the door of an angel

    G                         G
The end of fear is where we begin

    Bm                   Asus4    G
The moment we decided to let love in



Interlude
=========

        D/A                      D/B   D/A
There's nothing we can do about

    F#m                           F#madd11  F#m
The things we have to do without

    Bm          A
The only way to feel again

   G
Is let love in

        D/A                      D/B   D/A
There's nothing we can do about

    F#m                             F#madd11  F#m
The things we have to live without

    Bm          A
The only way to see again

   G
Is let love in


Bridge
======

    Dsus2                                               G

e|----------0-----------0-----------0-----------0---------------------|
B|----3-----------3-----------3-----------3-----------3---------------|
G|--------2-----2-----2-----2-----2-----2-----2-----2-----0---0---0---|
D|--0---0-----0-----0-----0-----0-----0-----0-----0-----0-------0-----|
A|----------------------------------------------------------2---------|
E|--------------------------------------------------------------------|

    D               Dsus2             G   

e|--2---------------0-------------------------------3--3--3--3--3-----|
B|--------3-----3---------3-----3---3-----3-----3---3--3--3--3--3-----|
G|------2-----2---2-----2-----2---2-----0-----0-----0--0--0--0--0-----|
D|----0-----0---------0-----0---------0-----0-----0-0--0--0--0--0-----|
A|---------------(0)-------------(0)----------------------------------|
E|--------------------------------------------------------------------|




Chorus 3
========

           D                 D  
You're the only one I ever believed in

    G                          G
The answer that could never be found

    Bm                    Asus4    G
The moment you decided to let love in

        D                         D
Now I'm banging on the door of an angel

    G                         G
The end of fear is where we begin

    Bm                   Asus4    G       D
The moment we decided to let love in


 
Any comments, suggestions or more Goo Goo Dolls transcriptions in standard
tunning, write me to ji-rafa@hotmail.com

                                                  ...And Remember "Life Is Good"
                                                                      Steve Vai
Добавлено: 20.07.2012
Другие материалы по этой песне:

Страница создана 25.03.2012
http://primanota.ru/goo-goo-dolls/let-love-in-chords.htm
Привет, Гость.
Предлагаем пройти революционный курс по гитаре.
Подарок от PrimaNota.Ru, забирай!