PrimaNota.ru - самый крупный в мире бесплатный архив песенных текстов, аккордов, табулатур и нот


Gonn - Blackout Of Gretely - таба, видео

Регистрация Запомнить меня
Войти через:  Facebook Google Twitter Vk Yandex Mail.ru

Gonn - Blackout Of Gretely - таба, видео

Печатать
Просмотров: 103
Авторы: Craig Moore, Rex Garrett

-------------------------------------------------------------------------------
                             Blackout of Gretely - GONN
-------------------------------------------------------------------------------
Tabbed by: Twar97

Tuning: Stanard
Key: E
Tempo: 155

Intro:
   1   2   3   4   
e|-----------------|-------------|-------------|-----------------------------|
B|-----------------|-------------|-------------|-----------------------------|
G|-9---------------|(9)----------|(9)----------|-----------------------------|
D|-9---------------|(9)----------|(9)----------|-----------------------------|
A|-7---------------|(7)----------|(7)----------|-----------------------------|
E|-0---------------|(0)----------|(0)----------|-----------------------------|


Riff:
   1   2   3   4    1   2   3   4                                  
e|-----------------|----------------|----------------------------------------|
B|-----------------|----------------|----------------------------------------|
G|-----------------|----------------|----------------------------------------|
D|-----------------|----------------|----------------------------------------|
A|-5h7-7-------5---|--------/5------|----------------------------------------|
E|---------5-------|3---3-----------|----------------------------------------|

Verse:
   E          D          G          D    A   E
e|-----|-----|----|-----|3---|(3)--|--------|--------------------------------|
B|-9---|(9)--|7---|(5)--|3---|(3)--|7----5--|9-------------------------------|
G|-9---|(9)--|7---|(5)--|4---|(4)--|7----6--|9-------------------------------|
D|-9---|(9)--|7---|(5)--|5---|(5)--|7----7--|9-------------------------------|
A|-7---|(7)--|5---|(7)--|5---|(5)--|5----7--|7-------------------------------|
E|-0---|(0)--|----|-----|3---|(3)--|-----5--|0-------------------------------|

Solo:

e|---------|------------------------|----------------------------------------|
B|---------|------------------------|----------------------------------------|
G|---------|---------12-14b(15)t~~~~|-14bh12---------------------------------|
D|-12h14---|---12-14----------------|--------14-14-14-14-14-14-14-14-14-12h14|
A|---------|------------------------|----------------------------------------|
E|---------|------------------------|----------------------------------------|

e|----------------|---------------------------|------------------------------|
B|----------------|---------------------------|------------------------------|
G|----12-14b(15)--|---------------------------|------------------------------|
D|-14-------------|-12h14-14----12--------/12-|-12h14-14----12--------/12----|
A|----------------|----------12-----10-10-----|----------12-----10-10--------|
E|----------------|---------------------------|------------------------------|

Order:

Riff | Verse | Riff | Verse | Riff | Solo | Riff | Verse | Riff | Verse


************************************

| /   slide up
| \   slide down
| h   hammer-on
| p   pull-off
| ~   vibrato
| +   harmonic
| x   Mute note
| b   Bend
| pb  Pre-bend
| br  Bend release
| pbr Pre-bend release
| brb Bend release bend
| t   Tremolo Pick

************************************
Добавлено: 31.07.2015
Другие материалы по этой песне:
  • Аккорды и текст

Страница создана 31.07.2015
http://primanota.ru/gonn/blackout-of-gretely-chords.htm
Привет, Гость.
Предлагаем пройти революционный курс по гитаре.
Подарок от PrimaNota.Ru, забирай!