PrimaNota.ru - самый крупный в мире бесплатный архив песенных текстов, аккордов, табулатур и нот


Gongzhe Sang - Fluch Der - таба

Регистрация Запомнить меня
Войти через:  Facebook Google Twitter Vk Yandex Mail.ru

Gongzhe Sang - Fluch Der - таба

Печатать
Просмотров: 33
-------------------------------------------------------------------------------
                          Morgen kommt der Weihnachtsmann
-------------------------------------------------------------------------------


e|--0-0-7-7-9-9-7----5-5-4-4-2-2-0----5-5-4-4-2-2-0----5-5-4-4-2-2-0---------|
B|---------------------------------------------------------------------------|
G|---------------------------------------------------------------------------|
D|---------------------------------------------------------------------------|
A|---------------------------------------------------------------------------|
E|---------------------------------------------------------------------------|

e|--0-0-7-7-9-9-7----5-5-4-4-2-2-0-------------------------------------------|
B|---------------------------------------------------------------------------|
G|---------------------------------------------------------------------------|
D|---------------------------------------------------------------------------|
A|---------------------------------------------------------------------------|
E|---------------------------------------------------------------------------|


-------------------------------------------------------------------------------
                              Alle meine Entchen  
-------------------------------------------------------------------------------


e|--0-2-4-5-7-7----9-9-9-9-7----9-9-9-9-7----5-5-5-5-4-4----2-2-2-2-0--------|
B|---------------------------------------------------------------------------|
G|---------------------------------------------------------------------------|
D|---------------------------------------------------------------------------|
A|---------------------------------------------------------------------------|
E|---------------------------------------------------------------------------|


-------------------------------------------------------------------------------
                              Bruder Jakob
-------------------------------------------------------------------------------


e|--0-2-4-0----0-2-4-0----4-5-7----4-5-7----7-9-7-5-4-0----7-9-7-5-4-0-------|
B|---------------------------------------------------------------------------|
G|---------------------------------------------------------------------------|
D|---------------------------------------------------------------------------|
A|---------------------------------------------------------------------------|
E|---------------------------------------------------------------------------|

e|--0---0----0---0-----------------------------------------------------------|
B|----0--------0-------------------------------------------------------------|
G|---------------------------------------------------------------------------|
D|---------------------------------------------------------------------------|
A|---------------------------------------------------------------------------|
E|---------------------------------------------------------------------------|


-------------------------------------------------------------------------------
                             Happy Birthday  
-------------------------------------------------------------------------------


e|--0-0-2-0-5-4----0-0-2-0-7-5----0-0-12-9-5-4-2----10-10-9-5-7-5------------|
B|---------------------------------------------------------------------------|
G|---------------------------------------------------------------------------|
D|---------------------------------------------------------------------------|
A|---------------------------------------------------------------------------|
E|---------------------------------------------------------------------------|


Добавлено: 27.11.2015
Другие материалы по этой песне:
  • Аккорды и текст

Страница создана 27.11.2015
http://primanota.ru/gongzhe-sang/fluch-der-chords.htm
Привет, Гость.
Предлагаем пройти революционный курс по гитаре.
Подарок от PrimaNota.Ru, забирай!