PrimaNota.ru - самый крупный в мире бесплатный архив песенных текстов, аккордов, табулатур и нот


Gone Jackals - Leter Rip - текст песни, таба, видео

Регистрация Запомнить меня
Войти через:  Facebook Google Twitter Vk Yandex Mail.ru

Gone Jackals - Leter Rip - текст песни, таба, видео

Печатать
Просмотров: 213
Авторы: Keith Karloff

       The Gone Jackals
        - Let'er Rip -
         Bone To Pick

        tabbed by PelzR


Tuning: Drop D (D A D G B E)

Here is the tab for "Let'er Rip" by "The Gone Jackals".
Maybe not tabbed in the best manner, but it should be readable.
The most of it should be correct. And sorry, no lead guitar.


Intro 

E|-------------|
B|-------------|
G|-------------|
D|-------------|
A|-5--6-5--3-0-|
D|-5--6-5--3-0-|
  

Pre-Verse 

E|--------------|
B|--------------|
G|--------------| play it 
D|--------------| until the
A|-0-0--0--0--0-| verse begins
D|-0-0--0--0--0-|


Verse 


E|---------------------------|---------------------------|
B|---------------------------|---------------------------|
G|---------------------------|---------------3--5--3-----|
D|---------------3--5--3-----|---------------3--5--3-----|
A|-0--0--0--0--0-3--5--3-0-0-|-0--0--0--0--0-1--3--1-0-0-|
D|-0--0--0--0--0-3--5--3-0-0-|-0--0--0--0--0---------0-0-|

                                                  ~ (vibrato)
E|---------------------------|----------------------|
B|---------------------------|----------------------|
G|---------------5--4--2-----|----------------------|
D|---------------5--4--2-----|----------------------|
A|-0--0--0--0--0-3--2--0-0-0-|-0--0--0--0-----------|
D|-0--0--0--0--0---------0-0-|-0--0--0--0--0-3--5-3-|


E|---------------------------|---------------------------|
B|---------------------------|---------------------------|
G|---------------------------|---------------3--5--3-----|
D|---------------3--5--3-----|---------------3--5--3-----|
A|-0--0--0--0--0-3--5--3-0-0-|-0--0--0--0--0-1--3--1-0-0-|
D|-0--0--0--0--0-3--5--3-0-0-|-0--0--0--0--0---------0-0-|

                                                  
E|---------------------------|---------------------------|
B|---------------------------|---------------------------|
G|---------------5--4--2-----|-------------5-5-4---------|
D|---------------5--4--2-----|-------------5-5-4---------|
A|-0--0--0--0--0-3--2--0-0-0-|-0--0--0--0--3-3-2-0-------|
D|-0--0--0--0--0---------0-0-|-0--0--0--0----------3-0-3-|



Pre-Chorus

E|----------|----------|----------|-------------|
B|----------|----------|----------|-------------|
G|----------|----------|----------|-------------|
D|-5--5-----|-7--7-----|-8--8-----|-10-10-10-10-|
A|-5----5---|-7----7---|-8----8---|-10-10-10-10-|
D|-5------5-|-7------7-|-8------8-|-10-10-10-10-|



Chorus

E|--------------------|--------------------|
B|--------------------|--------------------|
G|--------------------|------------3--5--3-|
D|------------3--5--3-|------------3--5--3-|
A|-0--0-0-0-0-3--5--3-|-0--0-0-0-0-1--3--1-|
D|-0--0-0-0-0-3--5--3-|-0--0-0-0-0---------|
      . . . .              . . . . (palm mute)

E|--------------------|------------|
B|--------------------|------------|
G|--------------------|------------|
D|--------------------|------------|
A|-0--0-0-0-0-3--2--0-|------------|
D|-0--0-0-0-0---------|-0--3--5--3-|
      . . . .              


Bridge 1
 
E|---|---------|----------|---|----------|----------|---|
B|---|---------|----------|---|----------|----------|---| 
G|---|---------|----------|---|----------|----------|---| 
D|-7-|-5--5----|-3--3-----|-7-|-5--5-----|-3--3-----|-0-| 
A|-7-|-5----5--|-3----3---|-7-|-5----5---|-3----3---|-0-| 
D|-7-|-5------5|-3------3-|-7-|-5------5-|-3------3-|-0-|


Break

E|-------------------------------|
B|-------------------------------| (b -> bending)
G|-------------------------------|
D|-------------------------------|
A|-5-------3----3-2--------------|
D|----3--5----5------0-0-5b--3-0-|
   .  .  . .  . . .  . .


Interlude/Outro 1

E|---------------|---------------|-----------|
B|---------------|---------------|-----------|
G|---------------|---------------|-----------|
D|---------------|---------------|-----------|
A|-0-0--0-0-2--0-|-0-0-3--0--0-0-|-0-0-0-0-2-|
D|-0-0--0-0-2--0-|-0-0-3--0--0-0-|-0-0-0-0-2-|
   . .  . .        . .       . .   . . . .


E|---------------|---------------|-------------| at the end of
B|---------------|---------------|-------------| the song the
G|---------------|---------------|-------------| riff is played 
D|---------------|---------------|-------------| in the different
A|-0-0--0-0-2--0-|-0-0-3--0--0-0-|-0-0-0-0---2-| rythm, the notes 
D|-0-0--0-0-2--0-|-0-0-3--0--0-0-|-0-0-0-0-0-2-| are still the same
   . .  . .        . .       . .   . . . .


Bridge 2

this comes straight before the last Pre-Chorus, listen carefully
when you have to play this because during the solo, the rythm. guitar
is low in the mix

E|---------------|---------------|-------------|-------------|
B|---------------|---------------|-------------|-------------|
G|---------------|---------------|-------------|-------------|
D|---------------|---------------|-------------|-------------|
A|-0-0--0-0-2--0-|-0-0-3--0--0-0-|-5--0--0-0-7-|-0--0-0-9--0-|
D|-0-0--0-0-2--0-|-0-0-3--0--0-0-|-5--0--0-0-7-|-0--0-0-9--0-|
   . .  . .        . .       . .         . .        . .      

E|-------------------------------|
B|-------------------------------|
G|-------------------------------|
D|-------------------------------|
A|-------3-5---3-5---3-5---3-5---|
D|-0-0-0-----0-----0-----0-----0-|
   . . .     .     .     .     .


Outro 2

E|---|-1-|------|
B|-3-|-3-|------| hit the
G|-2-|-2-|------| first two chords
D|-0-|-0-|-0--0-| softly 
A|-0-|-0-|-0--0-|
D|-0-|-0-|-0--0-|
   


Riff Structure:
---------------
Intro      3x
Pre-Verse  2x
Verse      1x
Pre-Chorus 1x
Chorus     2x
Intro      3x
Pre-Verse  2x
Verse      1x (only the last half of the Verse!)
Pre-Chorus 1x
Chorus     2x
Intro      3x
Pre-Verse  1x
Bridge 1   1x
Break      5x
Interlude  ...ehm... as long as needed
Bridge 2   1x
Pre-Chorus 1x
Chorus     2x
Outro 1    2x
Outro 1    4x (with a different rythm)
Intro      3x
Outro 2    1x
Добавлено: 27.05.2012
Другие материалы по этой песне:
  • Аккорды и текст

Страница создана 25.02.2012
http://primanota.ru/gone-jackals/leter-rip-chords.htm
Привет, Гость.
Предлагаем пройти революционный курс по гитаре.
Подарок от PrimaNota.Ru, забирай!